ISO-10303-21;
HEADER;
FILE_DESCRIPTION (( 'STEP AP214' ),
    '1' );
FILE_NAME ('GECP-BB-4.STEP',
    '2022-10-14T16:50:19',
    ( '' ),
    ( '' ),
    'SwSTEP 2.0',
    'SolidWorks 2021',
    '' );
FILE_SCHEMA (( 'AUTOMOTIVE_DESIGN' ));
ENDSEC;

DATA;
#1 = ADVANCED_FACE ( 'NONE', ( #143 ), #47, .T. ) ;
#2 = VERTEX_POINT ( 'NONE', #207 ) ;
#3 = PRESENTATION_LAYER_ASSIGNMENT (  '', '', ( #205 ) ) ;
#4 = ORIENTED_EDGE ( 'NONE', *, *, #201, .T. ) ;
#5 = VERTEX_POINT ( 'NONE', #64 ) ;
#6 = EDGE_LOOP ( 'NONE', ( #182, #72, #20, #180 ) ) ;
#7 = EDGE_CURVE ( 'NONE', #76, #2, #190, .T. ) ;
#8 = FILL_AREA_STYLE ('',( #26 ) ) ;
#9 = CARTESIAN_POINT ( 'NONE',  ( -0.9921259842519685179, -0.1968503937007874127, 0.000000000000000000 ) ) ;
#10 = CARTESIAN_POINT ( 'NONE',  ( 0.000000000000000000, 0.000000000000000000, 0.000000000000000000 ) ) ;
#11 = LINE ( 'NONE', #81, #120 ) ;
#12 = APPLICATION_PROTOCOL_DEFINITION ( 'draft international standard', 'automotive_design', 1998, #74 ) ;
#13 =( NAMED_UNIT ( * ) SI_UNIT ( $, .STERADIAN. ) SOLID_ANGLE_UNIT ( ) );
#14 = LINE ( 'NONE', #194, #160 ) ;
#15 = DIRECTION ( 'NONE',  ( -1.000000000000000000, -0.000000000000000000, 0.000000000000000000 ) ) ;
#16 = STYLED_ITEM ( 'NONE', ( #133 ), #121 ) ;
#17 = EDGE_CURVE ( 'NONE', #5, #76, #111, .T. ) ;
#18 = PLANE ( 'NONE',  #179 ) ;
#19 = FILL_AREA_STYLE_COLOUR ( '', #102 ) ;
#20 = ORIENTED_EDGE ( 'NONE', *, *, #140, .F. ) ;
#21 = EDGE_LOOP ( 'NONE', ( #39, #59, #165, #75 ) ) ;
#22 = PRODUCT_RELATED_PRODUCT_CATEGORY ( 'part', '', ( #209 ) ) ;
#23 = EDGE_LOOP ( 'NONE', ( #186, #154, #152, #119 ) ) ;
#24 = ORIENTED_EDGE ( 'NONE', *, *, #144, .F. ) ;
#25 = DIRECTION ( 'NONE',  ( 0.000000000000000000, 0.000000000000000000, 1.000000000000000000 ) ) ;
#26 = FILL_AREA_STYLE_COLOUR ( '', #67 ) ;
#27 =( LENGTH_UNIT ( ) NAMED_UNIT ( * ) SI_UNIT ( $, .METRE. ) );
#28 = LINE ( 'NONE', #79, #95 ) ;
#29 = PRESENTATION_LAYER_ASSIGNMENT (  '', '', ( #16 ) ) ;
#30 = ADVANCED_FACE ( 'NONE', ( #60 ), #127, .F. ) ;
#31 = DIRECTION ( 'NONE',  ( -0.000000000000000000, 0.000000000000000000, 1.000000000000000000 ) ) ;
#32 = CARTESIAN_POINT ( 'NONE',  ( -0.9921259842519685179, 0.1968503937007874127, 0.000000000000000000 ) ) ;
#33 = EDGE_CURVE ( 'NONE', #199, #2, #28, .T. ) ;
#34 =( LENGTH_UNIT ( ) NAMED_UNIT ( * ) SI_UNIT ( $, .METRE. ) );
#35 = SURFACE_STYLE_USAGE ( .BOTH. , #88 ) ;
#36 = CARTESIAN_POINT ( 'NONE',  ( 0.9921259842519685179, 0.1968503937007874127, 0.000000000000000000 ) ) ;
#37 = FACE_OUTER_BOUND ( 'NONE', #139, .T. ) ;
#38 = PRODUCT_DEFINITION ( 'UNKNOWN', '', #195, #176 ) ;
#39 = ORIENTED_EDGE ( 'NONE', *, *, #17, .T. ) ;
#40 = VERTEX_POINT ( 'NONE', #82 ) ;
#41 = CARTESIAN_POINT ( 'NONE',  ( -0.9921259842519685179, -0.1968503937007874127, 0.000000000000000000 ) ) ;
#42 = AXIS2_PLACEMENT_3D ( 'NONE', #87, #115, #68 ) ;
#43 = VECTOR ( 'NONE', #173, 39.37007874015748143 ) ;
#44 = DIRECTION ( 'NONE',  ( 1.000000000000000000, 0.000000000000000000, -0.000000000000000000 ) ) ;
#45 = LINE ( 'NONE', #41, #117 ) ;
#46 = MANIFOLD_SOLID_BREP ( 'Volumenk\X\F6rper1', #128 ) ;
#47 = PLANE ( 'NONE',  #168 ) ;
#48 =( NAMED_UNIT ( * ) SI_UNIT ( $, .STERADIAN. ) SOLID_ANGLE_UNIT ( ) );
#49 = APPLICATION_CONTEXT ( 'automotive_design' ) ;
#50 = SURFACE_STYLE_FILL_AREA ( #86 ) ;
#51 = VECTOR ( 'NONE', #193, 39.37007874015748143 ) ;
#52 = DIMENSIONAL_EXPONENTS ( 1.000000000000000000, 0.000000000000000000, 0.000000000000000000, 0.000000000000000000, 0.000000000000000000, 0.000000000000000000, 0.000000000000000000 ) ;
#53 = FACE_OUTER_BOUND ( 'NONE', #6, .T. ) ;
#54 =( LENGTH_UNIT ( ) NAMED_UNIT ( * ) SI_UNIT ( $, .METRE. ) );
#55 = ORIENTED_EDGE ( 'NONE', *, *, #155, .F. ) ;
#56 = LENGTH_MEASURE_WITH_UNIT ( LENGTH_MEASURE( 0.02539999999999999897 ), #54 );
#57 = VERTEX_POINT ( 'NONE', #9 ) ;
#58 = AXIS2_PLACEMENT_3D ( 'NONE', #10, #25, #170 ) ;
#59 = ORIENTED_EDGE ( 'NONE', *, *, #7, .T. ) ;
#60 = FACE_OUTER_BOUND ( 'NONE', #23, .T. ) ;
#61 = VECTOR ( 'NONE', #156, 39.37007874015748143 ) ;
#62 = DIRECTION ( 'NONE',  ( -0.000000000000000000, -1.000000000000000000, 0.000000000000000000 ) ) ;
#63 = PRODUCT_CONTEXT ( 'NONE', #49, 'mechanical' ) ;
#64 = CARTESIAN_POINT ( 'NONE',  ( -0.9921259842519685179, 0.1968503937007874127, 0.1181102362204724532 ) ) ;
#65 =( NAMED_UNIT ( * ) PLANE_ANGLE_UNIT ( ) SI_UNIT ( $, .RADIAN. ) );
#66 = DIRECTION ( 'NONE',  ( -0.000000000000000000, 0.000000000000000000, -1.000000000000000000 ) ) ;
#67 = COLOUR_RGB ( '',0.7921568627450980005, 0.8196078431372548767, 0.9333333333333333481 ) ;
#68 = DIRECTION ( 'NONE',  ( 0.000000000000000000, -0.000000000000000000, 1.000000000000000000 ) ) ;
#69 = PRODUCT_DEFINITION_SHAPE ( 'NONE', 'NONE',  #38 ) ;
#70 = CARTESIAN_POINT ( 'NONE',  ( 0.9921259842519685179, 0.1968503937007874127, 0.000000000000000000 ) ) ;
#71 = EDGE_CURVE ( 'NONE', #57, #199, #202, .T. ) ;
#72 = ORIENTED_EDGE ( 'NONE', *, *, #166, .F. ) ;
#73 = VECTOR ( 'NONE', #208, 39.37007874015748143 ) ;
#74 = APPLICATION_CONTEXT ( 'automotive_design' ) ;
#75 = ORIENTED_EDGE ( 'NONE', *, *, #140, .T. ) ;
#76 = VERTEX_POINT ( 'NONE', #204 ) ;
#77 = EDGE_CURVE ( 'NONE', #40, #57, #45, .T. ) ;
#78 = DIRECTION ( 'NONE',  ( 0.000000000000000000, -0.000000000000000000, -1.000000000000000000 ) ) ;
#79 = CARTESIAN_POINT ( 'NONE',  ( 0.9921259842519685179, -0.1968503937007874127, 0.000000000000000000 ) ) ;
#80 =( GEOMETRIC_REPRESENTATION_CONTEXT ( 3 ) GLOBAL_UNCERTAINTY_ASSIGNED_CONTEXT ( ( #146 ) ) GLOBAL_UNIT_ASSIGNED_CONTEXT ( ( #192, #113, #48 ) ) REPRESENTATION_CONTEXT ( 'NONE', 'WORKASPACE' ) );
#81 = CARTESIAN_POINT ( 'NONE',  ( 0.9921259842519685179, 0.1968503937007874127, 0.000000000000000000 ) ) ;
#82 = CARTESIAN_POINT ( 'NONE',  ( -0.9921259842519685179, 0.1968503937007874127, 0.000000000000000000 ) ) ;
#83 = CARTESIAN_POINT ( 'NONE',  ( 0.9921259842519685179, 0.1968503937007874127, 0.000000000000000000 ) ) ;
#84 = CARTESIAN_POINT ( 'NONE',  ( -0.9921259842519685179, -0.1968503937007874127, 0.000000000000000000 ) ) ;
#85 = VECTOR ( 'NONE', #66, 39.37007874015748143 ) ;
#86 = FILL_AREA_STYLE ('',( #19 ) ) ;
#87 = CARTESIAN_POINT ( 'NONE',  ( -0.9921259842519685179, 0.1968503937007874127, 0.000000000000000000 ) ) ;
#88 = SURFACE_SIDE_STYLE ('',( #50 ) ) ;
#89 = EDGE_LOOP ( 'NONE', ( #200, #197, #105, #4 ) ) ;
#90 =( GEOMETRIC_REPRESENTATION_CONTEXT ( 3 ) GLOBAL_UNCERTAINTY_ASSIGNED_CONTEXT ( ( #112 ) ) GLOBAL_UNIT_ASSIGNED_CONTEXT ( ( #158, #65, #13 ) ) REPRESENTATION_CONTEXT ( 'NONE', 'WORKASPACE' ) );
#91 = LINE ( 'NONE', #141, #61 ) ;
#92 = CARTESIAN_POINT ( 'NONE',  ( 0.000000000000000000, -0.1968503937007874127, 0.1181102362204724532 ) ) ;
#93 = SHAPE_DEFINITION_REPRESENTATION ( #69, #121 ) ;
#94 = CARTESIAN_POINT ( 'NONE',  ( 0.9921259842519685179, -0.1968503937007874127, 0.000000000000000000 ) ) ;
#95 = VECTOR ( 'NONE', #31, 39.37007874015748143 ) ;
#96 = DIRECTION ( 'NONE',  ( 0.000000000000000000, -1.000000000000000000, 0.000000000000000000 ) ) ;
#97 = LINE ( 'NONE', #132, #108 ) ;
#98 = LINE ( 'NONE', #84, #73 ) ;
#99 = UNCERTAINTY_MEASURE_WITH_UNIT (LENGTH_MEASURE( 1.000000000000000082E-05 ), #181, 'distance_accuracy_value', 'NONE');
#100 = ORIENTED_EDGE ( 'NONE', *, *, #77, .T. ) ;
#101 = ORIENTED_EDGE ( 'NONE', *, *, #166, .T. ) ;
#102 = COLOUR_RGB ( '',0.7921568627450980005, 0.8196078431372548767, 0.9333333333333333481 ) ;
#103 = ADVANCED_FACE ( 'NONE', ( #125 ), #107, .T. ) ;
#104 = ORIENTED_EDGE ( 'NONE', *, *, #201, .F. ) ;
#105 = ORIENTED_EDGE ( 'NONE', *, *, #7, .F. ) ;
#106 =( NAMED_UNIT ( * ) PLANE_ANGLE_UNIT ( ) SI_UNIT ( $, .RADIAN. ) );
#107 = PLANE ( 'NONE',  #136 ) ;
#108 = VECTOR ( 'NONE', #15, 39.37007874015748143 ) ;
#109 = SURFACE_SIDE_STYLE ('',( #123 ) ) ;
#110 = CARTESIAN_POINT ( 'NONE',  ( 0.000000000000000000, -1.315760623077307085E-18, 0.1181102362204724532 ) ) ;
#111 = LINE ( 'NONE', #203, #43 ) ;
#112 = UNCERTAINTY_MEASURE_WITH_UNIT (LENGTH_MEASURE( 1.000000000000000082E-05 ), #158, 'distance_accuracy_value', 'NONE');
#113 =( NAMED_UNIT ( * ) PLANE_ANGLE_UNIT ( ) SI_UNIT ( $, .RADIAN. ) );
#114 = VECTOR ( 'NONE', #44, 39.37007874015748143 ) ;
#115 = DIRECTION ( 'NONE',  ( 0.000000000000000000, 1.000000000000000000, 0.000000000000000000 ) ) ;
#116 = DIRECTION ( 'NONE',  ( -1.000000000000000000, 0.000000000000000000, 0.000000000000000000 ) ) ;
#117 = VECTOR ( 'NONE', #62, 39.37007874015748143 ) ;
#118 = EDGE_CURVE ( 'NONE', #137, #40, #91, .T. ) ;
#119 = ORIENTED_EDGE ( 'NONE', *, *, #118, .F. ) ;
#120 = VECTOR ( 'NONE', #174, 39.37007874015748143 ) ;
#121 = ADVANCED_BREP_SHAPE_REPRESENTATION ( 'GECP-BB-4', ( #46, #58 ), #80 ) ;
#122 = CARTESIAN_POINT ( 'NONE',  ( 0.000000000000000000, 1.315760623077307085E-18, 0.000000000000000000 ) ) ;
#123 = SURFACE_STYLE_FILL_AREA ( #8 ) ;
#124 = MECHANICAL_DESIGN_GEOMETRIC_PRESENTATION_REPRESENTATION (  '', ( #205 ), #90 ) ;
#125 = FACE_OUTER_BOUND ( 'NONE', #21, .T. ) ;
#126 = DIRECTION ( 'NONE',  ( 0.000000000000000000, 0.000000000000000000, 1.000000000000000000 ) ) ;
#127 = PLANE ( 'NONE',  #161 ) ;
#128 = CLOSED_SHELL ( 'NONE', ( #103, #1, #163, #135, #189, #30 ) ) ;
#129 = DIRECTION ( 'NONE',  ( 0.000000000000000000, 0.000000000000000000, 1.000000000000000000 ) ) ;
#130 = CARTESIAN_POINT ( 'NONE',  ( 0.9921259842519685179, -0.1968503937007874127, 0.000000000000000000 ) ) ;
#131 = EDGE_CURVE ( 'NONE', #199, #137, #11, .T. ) ;
#132 = CARTESIAN_POINT ( 'NONE',  ( 0.000000000000000000, 0.1968503937007874127, 0.1181102362204724532 ) ) ;
#133 = PRESENTATION_STYLE_ASSIGNMENT (( #35 ) ) ;
#134 = DIRECTION ( 'NONE',  ( 0.000000000000000000, 0.000000000000000000, -1.000000000000000000 ) ) ;
#135 = ADVANCED_FACE ( 'NONE', ( #53 ), #178, .T. ) ;
#136 = AXIS2_PLACEMENT_3D ( 'NONE', #110, #167, #171 ) ;
#137 = VERTEX_POINT ( 'NONE', #36 ) ;
#138 = ORIENTED_EDGE ( 'NONE', *, *, #17, .F. ) ;
#139 = EDGE_LOOP ( 'NONE', ( #100, #104, #138, #101 ) ) ;
#140 = EDGE_CURVE ( 'NONE', #164, #5, #97, .T. ) ;
#141 = CARTESIAN_POINT ( 'NONE',  ( -0.9921259842519685179, 0.1968503937007874127, 0.000000000000000000 ) ) ;
#142 = CARTESIAN_POINT ( 'NONE',  ( 0.9921259842519685179, -0.1968503937007874127, 0.000000000000000000 ) ) ;
#143 = FACE_OUTER_BOUND ( 'NONE', #89, .T. ) ;
#144 = EDGE_CURVE ( 'NONE', #2, #164, #14, .T. ) ;
#145 = LINE ( 'NONE', #83, #85 ) ;
#146 = UNCERTAINTY_MEASURE_WITH_UNIT (LENGTH_MEASURE( 1.000000000000000082E-05 ), #192, 'distance_accuracy_value', 'NONE');
#147 = DIMENSIONAL_EXPONENTS ( 1.000000000000000000, 0.000000000000000000, 0.000000000000000000, 0.000000000000000000, 0.000000000000000000, 0.000000000000000000, 0.000000000000000000 ) ;
#148 = DIRECTION ( 'NONE',  ( 1.000000000000000000, -0.000000000000000000, 0.000000000000000000 ) ) ;
#149 = DIRECTION ( 'NONE',  ( -0.000000000000000000, 1.000000000000000000, 0.000000000000000000 ) ) ;
#150 = MECHANICAL_DESIGN_GEOMETRIC_PRESENTATION_REPRESENTATION (  '', ( #16 ), #198 ) ;
#151 = CARTESIAN_POINT ( 'NONE',  ( -0.9921259842519685179, -0.1968503937007874127, 0.000000000000000000 ) ) ;
#152 = ORIENTED_EDGE ( 'NONE', *, *, #77, .F. ) ;
#153 = VECTOR ( 'NONE', #187, 39.37007874015748143 ) ;
#154 = ORIENTED_EDGE ( 'NONE', *, *, #71, .F. ) ;
#155 = EDGE_CURVE ( 'NONE', #164, #137, #145, .T. ) ;
#156 = DIRECTION ( 'NONE',  ( -1.000000000000000000, -0.000000000000000000, 0.000000000000000000 ) ) ;
#157 = DIRECTION ( 'NONE',  ( 1.000000000000000000, 0.000000000000000000, -0.000000000000000000 ) ) ;
#158 =( CONVERSION_BASED_UNIT ( 'INCH', #172 ) LENGTH_UNIT ( ) NAMED_UNIT ( #147 ) );
#159 = DIMENSIONAL_EXPONENTS ( 1.000000000000000000, 0.000000000000000000, 0.000000000000000000, 0.000000000000000000, 0.000000000000000000, 0.000000000000000000, 0.000000000000000000 ) ;
#160 = VECTOR ( 'NONE', #149, 39.37007874015748143 ) ;
#161 = AXIS2_PLACEMENT_3D ( 'NONE', #122, #126, #157 ) ;
#162 = LENGTH_MEASURE_WITH_UNIT ( LENGTH_MEASURE( 0.02539999999999999897 ), #34 );
#163 = ADVANCED_FACE ( 'NONE', ( #37 ), #177, .T. ) ;
#164 = VERTEX_POINT ( 'NONE', #175 ) ;
#165 = ORIENTED_EDGE ( 'NONE', *, *, #144, .T. ) ;
#166 = EDGE_CURVE ( 'NONE', #5, #40, #210, .T. ) ;
#167 = DIRECTION ( 'NONE',  ( 0.000000000000000000, 0.000000000000000000, 1.000000000000000000 ) ) ;
#168 = AXIS2_PLACEMENT_3D ( 'NONE', #142, #96, #78 ) ;
#169 = SURFACE_STYLE_USAGE ( .BOTH. , #109 ) ;
#170 = DIRECTION ( 'NONE',  ( 1.000000000000000000, 0.000000000000000000, 0.000000000000000000 ) ) ;
#171 = DIRECTION ( 'NONE',  ( 1.000000000000000000, 0.000000000000000000, -0.000000000000000000 ) ) ;
#172 = LENGTH_MEASURE_WITH_UNIT ( LENGTH_MEASURE( 0.02539999999999999897 ), #27 );
#173 = DIRECTION ( 'NONE',  ( 0.000000000000000000, -1.000000000000000000, -0.000000000000000000 ) ) ;
#174 = DIRECTION ( 'NONE',  ( 0.000000000000000000, 1.000000000000000000, 0.000000000000000000 ) ) ;
#175 = CARTESIAN_POINT ( 'NONE',  ( 0.9921259842519685179, 0.1968503937007874127, 0.1181102362204724532 ) ) ;
#176 = PRODUCT_DEFINITION_CONTEXT ( 'detailed design', #74, 'design' ) ;
#177 = PLANE ( 'NONE',  #184 ) ;
#178 = PLANE ( 'NONE',  #42 ) ;
#179 = AXIS2_PLACEMENT_3D ( 'NONE', #70, #148, #134 ) ;
#180 = ORIENTED_EDGE ( 'NONE', *, *, #155, .T. ) ;
#181 =( CONVERSION_BASED_UNIT ( 'INCH', #56 ) LENGTH_UNIT ( ) NAMED_UNIT ( #159 ) );
#182 = ORIENTED_EDGE ( 'NONE', *, *, #118, .T. ) ;
#183 = ORIENTED_EDGE ( 'NONE', *, *, #33, .F. ) ;
#184 = AXIS2_PLACEMENT_3D ( 'NONE', #151, #116, #129 ) ;
#185 = EDGE_LOOP ( 'NONE', ( #191, #55, #24, #183 ) ) ;
#186 = ORIENTED_EDGE ( 'NONE', *, *, #131, .F. ) ;
#187 = DIRECTION ( 'NONE',  ( 1.000000000000000000, 0.000000000000000000, 0.000000000000000000 ) ) ;
#188 = PRESENTATION_STYLE_ASSIGNMENT (( #169 ) ) ;
#189 = ADVANCED_FACE ( 'NONE', ( #211 ), #18, .T. ) ;
#190 = LINE ( 'NONE', #92, #114 ) ;
#191 = ORIENTED_EDGE ( 'NONE', *, *, #131, .T. ) ;
#192 =( CONVERSION_BASED_UNIT ( 'INCH', #162 ) LENGTH_UNIT ( ) NAMED_UNIT ( #52 ) );
#193 = DIRECTION ( 'NONE',  ( -0.000000000000000000, -0.000000000000000000, -1.000000000000000000 ) ) ;
#194 = CARTESIAN_POINT ( 'NONE',  ( 0.9921259842519685179, -1.315760623077307085E-18, 0.1181102362204724532 ) ) ;
#195 = PRODUCT_DEFINITION_FORMATION_WITH_SPECIFIED_SOURCE ( 'ANY', '', #209, .NOT_KNOWN. ) ;
#196 = APPLICATION_PROTOCOL_DEFINITION ( 'draft international standard', 'automotive_design', 1998, #49 ) ;
#197 = ORIENTED_EDGE ( 'NONE', *, *, #33, .T. ) ;
#198 =( GEOMETRIC_REPRESENTATION_CONTEXT ( 3 ) GLOBAL_UNCERTAINTY_ASSIGNED_CONTEXT ( ( #99 ) ) GLOBAL_UNIT_ASSIGNED_CONTEXT ( ( #181, #106, #206 ) ) REPRESENTATION_CONTEXT ( 'NONE', 'WORKASPACE' ) );
#199 = VERTEX_POINT ( 'NONE', #130 ) ;
#200 = ORIENTED_EDGE ( 'NONE', *, *, #71, .T. ) ;
#201 = EDGE_CURVE ( 'NONE', #76, #57, #98, .T. ) ;
#202 = LINE ( 'NONE', #94, #153 ) ;
#203 = CARTESIAN_POINT ( 'NONE',  ( -0.9921259842519685179, -1.315760623077307085E-18, 0.1181102362204724532 ) ) ;
#204 = CARTESIAN_POINT ( 'NONE',  ( -0.9921259842519685179, -0.1968503937007874127, 0.1181102362204724532 ) ) ;
#205 = STYLED_ITEM ( 'NONE', ( #188 ), #46 ) ;
#206 =( NAMED_UNIT ( * ) SI_UNIT ( $, .STERADIAN. ) SOLID_ANGLE_UNIT ( ) );
#207 = CARTESIAN_POINT ( 'NONE',  ( 0.9921259842519685179, -0.1968503937007874127, 0.1181102362204724532 ) ) ;
#208 = DIRECTION ( 'NONE',  ( 0.000000000000000000, -0.000000000000000000, -1.000000000000000000 ) ) ;
#209 = PRODUCT ( 'GECP-BB-4', 'GECP-BB-4', '', ( #63 ) ) ;
#210 = LINE ( 'NONE', #32, #51 ) ;
#211 = FACE_OUTER_BOUND ( 'NONE', #185, .T. ) ;
ENDSEC;
END-ISO-10303-21;
