ISO-10303-21;
HEADER;
FILE_DESCRIPTION (( 'STEP AP203' ),
    '1' );
FILE_NAME ('ECX2640.STEP',
    '2023-08-08T14:58:01',
    ( '' ),
    ( '' ),
    'SwSTEP 2.0',
    'SolidWorks 2021',
    '' );
FILE_SCHEMA (( 'CONFIG_CONTROL_DESIGN' ));
ENDSEC;

DATA;
#1 = CARTESIAN_POINT ( 'NONE',  ( 0.9842519685039372579, 0.9842519685039372579, 0.03228346456692913341 ) ) ;
#2 = DIRECTION ( 'NONE',  ( 0.000000000000000000, -0.000000000000000000, 1.000000000000000000 ) ) ;
#3 = APPROVAL_DATE_TIME ( #300, #133 ) ;
#4 = FACE_OUTER_BOUND ( 'NONE', #303, .T. ) ;
#5 = PERSON_AND_ORGANIZATION_ROLE ( 'creator' ) ;
#6 = LINE ( 'NONE', #81, #125 ) ;
#7 = VECTOR ( 'NONE', #35, 39.37007874015748143 ) ;
#8 = DIRECTION ( 'NONE',  ( -1.000000000000000000, -1.387778780781445676E-16, 0.000000000000000000 ) ) ;
#9 = PERSON_AND_ORGANIZATION ( #152, #86 ) ;
#10 = MANIFOLD_SOLID_BREP ( 'Boss-Extrude1', #285 ) ;
#11 = VECTOR ( 'NONE', #183, 39.37007874015748143 ) ;
#12 = APPLICATION_PROTOCOL_DEFINITION ( 'international standard', 'config_control_design', 1994, #271 ) ;
#13 = VECTOR ( 'NONE', #75, 39.37007874015748143 ) ;
#14 = PLANE ( 'NONE',  #269 ) ;
#15 = COORDINATED_UNIVERSAL_TIME_OFFSET ( 5, 0, .BEHIND. ) ;
#16 = PERSON_AND_ORGANIZATION ( #152, #86 ) ;
#17 = ORIENTED_EDGE ( 'NONE', *, *, #49, .F. ) ;
#18 = ADVANCED_FACE ( 'NONE', ( #193 ), #147, .F. ) ;
#19 = SHAPE_DEFINITION_REPRESENTATION ( #273, #279 ) ;
#20 = EDGE_LOOP ( 'NONE', ( #116, #68, #167, #165 ) ) ;
#21 = ORIENTED_EDGE ( 'NONE', *, *, #130, .F. ) ;
#22 = EDGE_LOOP ( 'NONE', ( #262, #21 ) ) ;
#23 = CALENDAR_DATE ( 2023, 8, 8 ) ;
#24 = ORIENTED_EDGE ( 'NONE', *, *, #169, .T. ) ;
#25 = AXIS2_PLACEMENT_3D ( 'NONE', #221, #2, #28 ) ;
#26 = DIRECTION ( 'NONE',  ( 1.000000000000000000, 1.387778780781445429E-16, 0.000000000000000000 ) ) ;
#27 = DIRECTION ( 'NONE',  ( -0.000000000000000000, -0.000000000000000000, -1.000000000000000000 ) ) ;
#28 = DIRECTION ( 'NONE',  ( 1.000000000000000000, 0.000000000000000000, -0.000000000000000000 ) ) ;
#29 = CARTESIAN_POINT ( 'NONE',  ( 0.000000000000000000, 0.000000000000000000, 0.000000000000000000 ) ) ;
#30 = CARTESIAN_POINT ( 'NONE',  ( 0.4429133858267716994, 5.424124602522726620E-17, 0.000000000000000000 ) ) ;
#31 = PERSON_AND_ORGANIZATION_ROLE ( 'creator' ) ;
#32 = CARTESIAN_POINT ( 'NONE',  ( -0.9842519685039369248, -0.9842519685039372579, 0.03228346456692913341 ) ) ;
#33 = ADVANCED_FACE ( 'NONE', ( #239 ), #291, .F. ) ;
#34 = APPROVAL_STATUS ( 'not_yet_approved' ) ;
#35 = DIRECTION ( 'NONE',  ( -0.000000000000000000, -0.000000000000000000, -1.000000000000000000 ) ) ;
#36 = DIMENSIONAL_EXPONENTS ( 1.000000000000000000, 0.000000000000000000, 0.000000000000000000, 0.000000000000000000, 0.000000000000000000, 0.000000000000000000, 0.000000000000000000 ) ;
#37 = AXIS2_PLACEMENT_3D ( 'NONE', #249, #173, #265 ) ;
#38 = APPROVAL_ROLE ( '' ) ;
#39 = EDGE_CURVE ( 'NONE', #42, #114, #87, .T. ) ;
#40 = CC_DESIGN_APPROVAL ( #133, ( #122 ) ) ;
#41 = EDGE_LOOP ( 'NONE', ( #305, #208, #264, #241 ) ) ;
#42 = VERTEX_POINT ( 'NONE', #121 ) ;
#43 = ORIENTED_EDGE ( 'NONE', *, *, #216, .T. ) ;
#44 = APPROVAL_DATE_TIME ( #112, #150 ) ;
#45 = DIRECTION ( 'NONE',  ( 1.000000000000000000, 0.000000000000000000, 0.000000000000000000 ) ) ;
#46 = VERTEX_POINT ( 'NONE', #1 ) ;
#47 = DIRECTION ( 'NONE',  ( 1.387778780781445429E-16, -1.000000000000000000, 0.000000000000000000 ) ) ;
#48 = FACE_OUTER_BOUND ( 'NONE', #41, .T. ) ;
#49 = EDGE_CURVE ( 'NONE', #212, #46, #250, .T. ) ;
#50 = VECTOR ( 'NONE', #105, 39.37007874015748143 ) ;
#51 = FACE_OUTER_BOUND ( 'NONE', #233, .T. ) ;
#52 = DIRECTION ( 'NONE',  ( 0.000000000000000000, 0.000000000000000000, 1.000000000000000000 ) ) ;
#53 = AXIS2_PLACEMENT_3D ( 'NONE', #251, #293, #312 ) ;
#54 = CARTESIAN_POINT ( 'NONE',  ( -0.4429133858267716994, 0.000000000000000000, 0.03228346456692913341 ) ) ;
#55 = PLANE ( 'NONE',  #37 ) ;
#56 = ADVANCED_FACE ( 'NONE', ( #158, #197 ), #73, .F. ) ;
#57 = DATE_AND_TIME ( #203, #93 ) ;
#58 = COORDINATED_UNIVERSAL_TIME_OFFSET ( 5, 0, .BEHIND. ) ;
#59 = APPLICATION_PROTOCOL_DEFINITION ( 'international standard', 'config_control_design', 1994, #280 ) ;
#60 = ADVANCED_FACE ( 'NONE', ( #51 ), #97, .F. ) ;
#61 = CARTESIAN_POINT ( 'NONE',  ( 0.9842519685039370358, -0.9842519685039369248, 0.000000000000000000 ) ) ;
#62 = VECTOR ( 'NONE', #27, 39.37007874015748143 ) ;
#63 = ORIENTED_EDGE ( 'NONE', *, *, #130, .T. ) ;
#64 = VERTEX_POINT ( 'NONE', #32 ) ;
#65 = ORIENTED_EDGE ( 'NONE', *, *, #219, .F. ) ;
#66 = APPROVAL_STATUS ( 'not_yet_approved' ) ;
#67 = ORIENTED_EDGE ( 'NONE', *, *, #164, .F. ) ;
#68 = ORIENTED_EDGE ( 'NONE', *, *, #297, .F. ) ;
#69 = EDGE_CURVE ( 'NONE', #46, #237, #296, .T. ) ;
#70 = DIRECTION ( 'NONE',  ( 6.938893903907228378E-17, 1.000000000000000000, 0.000000000000000000 ) ) ;
#71 = DIRECTION ( 'NONE',  ( -1.000000000000000000, 0.000000000000000000, 0.000000000000000000 ) ) ;
#72 = DIRECTION ( 'NONE',  ( 1.000000000000000000, 0.000000000000000000, 0.000000000000000000 ) ) ;
#73 = PLANE ( 'NONE',  #25 ) ;
#74 = AXIS2_PLACEMENT_3D ( 'NONE', #246, #151, #126 ) ;
#75 = DIRECTION ( 'NONE',  ( -0.000000000000000000, -0.000000000000000000, -1.000000000000000000 ) ) ;
#76 = LOCAL_TIME ( 10, 58, 1.000000000000000000, #15 ) ;
#77 = FACE_OUTER_BOUND ( 'NONE', #20, .T. ) ;
#78 =( CONVERSION_BASED_UNIT ( 'INCH', #111 ) LENGTH_UNIT ( ) NAMED_UNIT ( #36 ) );
#79 = PERSON_AND_ORGANIZATION ( #152, #86 ) ;
#80 =( NAMED_UNIT ( * ) SI_UNIT ( $, .STERADIAN. ) SOLID_ANGLE_UNIT ( ) );
#81 = CARTESIAN_POINT ( 'NONE',  ( 0.9842519685039370358, -0.9842519685039369248, 0.000000000000000000 ) ) ;
#82 = ORIENTED_EDGE ( 'NONE', *, *, #119, .T. ) ;
#83 = ORIENTED_EDGE ( 'NONE', *, *, #204, .F. ) ;
#84 = ORIENTED_EDGE ( 'NONE', *, *, #96, .F. ) ;
#85 = PRODUCT_RELATED_PRODUCT_CATEGORY ( 'detail', '', ( #155 ) ) ;
#86 = ORGANIZATION ( 'UNSPECIFIED', 'UNSPECIFIED', '' ) ;
#87 = LINE ( 'NONE', #189, #101 ) ;
#88 = ORIENTED_EDGE ( 'NONE', *, *, #69, .F. ) ;
#89 = VECTOR ( 'NONE', #8, 39.37007874015748143 ) ;
#90 = ORIENTED_EDGE ( 'NONE', *, *, #216, .F. ) ;
#91 = VECTOR ( 'NONE', #294, 39.37007874015748143 ) ;
#92 = DIRECTION ( 'NONE',  ( 0.000000000000000000, 0.000000000000000000, -1.000000000000000000 ) ) ;
#93 = LOCAL_TIME ( 10, 58, 1.000000000000000000, #58 ) ;
#94 = CYLINDRICAL_SURFACE ( 'NONE', #135, 0.4429133858267716994 ) ;
#95 = DIRECTION ( 'NONE',  ( 1.000000000000000000, 0.000000000000000000, 0.000000000000000000 ) ) ;
#96 = EDGE_CURVE ( 'NONE', #141, #145, #201, .T. ) ;
#97 = CYLINDRICAL_SURFACE ( 'NONE', #192, 0.4429133858267716994 ) ;
#98 = CARTESIAN_POINT ( 'NONE',  ( 0.4429133858267716994, 5.424124602522726620E-17, 0.03228346456692913341 ) ) ;
#99 = DIRECTION ( 'NONE',  ( -0.000000000000000000, -0.000000000000000000, -1.000000000000000000 ) ) ;
#100 = CC_DESIGN_SECURITY_CLASSIFICATION ( #311, ( #122 ) ) ;
#101 = VECTOR ( 'NONE', #142, 39.37007874015748143 ) ;
#102 = CARTESIAN_POINT ( 'NONE',  ( 0.9842519685039370358, -0.9842519685039369248, 0.03228346456692913341 ) ) ;
#103 =( GEOMETRIC_REPRESENTATION_CONTEXT ( 3 ) GLOBAL_UNCERTAINTY_ASSIGNED_CONTEXT ( ( #143 ) ) GLOBAL_UNIT_ASSIGNED_CONTEXT ( ( #78, #202, #80 ) ) REPRESENTATION_CONTEXT ( 'NONE', 'WORKASPACE' ) );
#104 = PRODUCT_DEFINITION ( 'UNKNOWN', '', #122, #259 ) ;
#105 = DIRECTION ( 'NONE',  ( -0.000000000000000000, -1.000000000000000000, -0.000000000000000000 ) ) ;
#106 = COORDINATED_UNIVERSAL_TIME_OFFSET ( 5, 0, .BEHIND. ) ;
#107 = LINE ( 'NONE', #207, #89 ) ;
#108 = DIRECTION ( 'NONE',  ( 1.000000000000000000, 1.387778780781445676E-16, -0.000000000000000000 ) ) ;
#109 = CC_DESIGN_PERSON_AND_ORGANIZATION_ASSIGNMENT ( #181, #200, ( #122 ) ) ;
#110 = EDGE_LOOP ( 'NONE', ( #211, #170 ) ) ;
#111 = LENGTH_MEASURE_WITH_UNIT ( LENGTH_MEASURE( 0.02539999999999999897 ), #228 );
#112 = DATE_AND_TIME ( #260, #163 ) ;
#113 = DATE_AND_TIME ( #234, #136 ) ;
#114 = VERTEX_POINT ( 'NONE', #123 ) ;
#115 = VERTEX_POINT ( 'NONE', #30 ) ;
#116 = ORIENTED_EDGE ( 'NONE', *, *, #204, .T. ) ;
#117 = DATE_AND_TIME ( #23, #76 ) ;
#118 = CIRCLE ( 'NONE', #289, 0.4429133858267716994 ) ;
#119 = EDGE_CURVE ( 'NONE', #141, #190, #270, .T. ) ;
#120 = CIRCLE ( 'NONE', #53, 0.4429133858267716994 ) ;
#121 = CARTESIAN_POINT ( 'NONE',  ( -0.9842519685039369248, 0.9842519685039369248, 0.03228346456692913341 ) ) ;
#122 = PRODUCT_DEFINITION_FORMATION_WITH_SPECIFIED_SOURCE ( 'ANY', '', #155, .NOT_KNOWN. ) ;
#123 = CARTESIAN_POINT ( 'NONE',  ( -0.9842519685039369248, 0.9842519685039369248, 0.000000000000000000 ) ) ;
#124 = CC_DESIGN_PERSON_AND_ORGANIZATION_ASSIGNMENT ( #157, #240, ( #311 ) ) ;
#125 = VECTOR ( 'NONE', #108, 39.37007874015748143 ) ;
#126 = DIRECTION ( 'NONE',  ( 1.000000000000000000, 0.000000000000000000, -0.000000000000000000 ) ) ;
#127 = CARTESIAN_POINT ( 'NONE',  ( 0.000000000000000000, 0.000000000000000000, 0.03228346456692913341 ) ) ;
#128 = LINE ( 'NONE', #220, #213 ) ;
#129 = LINE ( 'NONE', #223, #7 ) ;
#130 = EDGE_CURVE ( 'NONE', #190, #141, #120, .T. ) ;
#131 = DIRECTION ( 'NONE',  ( -0.000000000000000000, -0.000000000000000000, -1.000000000000000000 ) ) ;
#132 = CARTESIAN_POINT ( 'NONE',  ( 0.000000000000000000, 0.000000000000000000, 0.000000000000000000 ) ) ;
#133 = APPROVAL ( #34, 'UNSPECIFIED' ) ;
#134 = PERSON_AND_ORGANIZATION ( #152, #86 ) ;
#135 = AXIS2_PLACEMENT_3D ( 'NONE', #179, #99, #71 ) ;
#136 = LOCAL_TIME ( 10, 58, 1.000000000000000000, #139 ) ;
#137 = APPROVAL_ROLE ( '' ) ;
#138 = APPROVAL_PERSON_ORGANIZATION ( #9, #133, #229 ) ;
#139 = COORDINATED_UNIVERSAL_TIME_OFFSET ( 5, 0, .BEHIND. ) ;
#140 = ORIENTED_EDGE ( 'NONE', *, *, #313, .F. ) ;
#141 = VERTEX_POINT ( 'NONE', #54 ) ;
#142 = DIRECTION ( 'NONE',  ( -0.000000000000000000, -0.000000000000000000, -1.000000000000000000 ) ) ;
#143 = UNCERTAINTY_MEASURE_WITH_UNIT (LENGTH_MEASURE( 1.000000000000000082E-05 ), #78, 'distance_accuracy_value', 'NONE');
#144 = EDGE_LOOP ( 'NONE', ( #288, #185, #67, #286 ) ) ;
#145 = VERTEX_POINT ( 'NONE', #156 ) ;
#146 = ADVANCED_FACE ( 'NONE', ( #4 ), #94, .F. ) ;
#147 = PLANE ( 'NONE',  #243 ) ;
#148 = AXIS2_PLACEMENT_3D ( 'NONE', #194, #47, #26 ) ;
#149 = PLANE ( 'NONE',  #74 ) ;
#150 = APPROVAL ( #66, 'UNSPECIFIED' ) ;
#151 = DIRECTION ( 'NONE',  ( 0.000000000000000000, -0.000000000000000000, 1.000000000000000000 ) ) ;
#152 = PERSON ( 'UNSPECIFIED', 'UNSPECIFIED', 'UNSPECIFIED', ('UNSPECIFIED'), ('UNSPECIFIED'), ('UNSPECIFIED') ) ;
#153 = VECTOR ( 'NONE', #131, 39.37007874015748143 ) ;
#154 = DIRECTION ( 'NONE',  ( 1.000000000000000000, 0.000000000000000000, 0.000000000000000000 ) ) ;
#155 = PRODUCT ( 'ECX2640', 'ECX2640', '', ( #252 ) ) ;
#156 = CARTESIAN_POINT ( 'NONE',  ( -0.4429133858267716994, 0.000000000000000000, 0.000000000000000000 ) ) ;
#157 = PERSON_AND_ORGANIZATION ( #152, #86 ) ;
#158 = FACE_OUTER_BOUND ( 'NONE', #188, .T. ) ;
#159 = LINE ( 'NONE', #162, #11 ) ;
#160 = EDGE_CURVE ( 'NONE', #190, #115, #172, .T. ) ;
#161 = LINE ( 'NONE', #184, #153 ) ;
#162 = CARTESIAN_POINT ( 'NONE',  ( 0.9842519685039370358, -0.9842519685039369248, 0.03228346456692913341 ) ) ;
#163 = LOCAL_TIME ( 10, 58, 1.000000000000000000, #186 ) ;
#164 = EDGE_CURVE ( 'NONE', #46, #42, #276, .T. ) ;
#165 = ORIENTED_EDGE ( 'NONE', *, *, #219, .T. ) ;
#166 = ORIENTED_EDGE ( 'NONE', *, *, #191, .F. ) ;
#167 = ORIENTED_EDGE ( 'NONE', *, *, #224, .F. ) ;
#168 = VECTOR ( 'NONE', #302, 39.37007874015748143 ) ;
#169 = EDGE_CURVE ( 'NONE', #308, #237, #128, .T. ) ;
#170 = ORIENTED_EDGE ( 'NONE', *, *, #187, .T. ) ;
#171 = ADVANCED_FACE ( 'NONE', ( #198 ), #55, .F. ) ;
#172 = LINE ( 'NONE', #98, #176 ) ;
#173 = DIRECTION ( 'NONE',  ( -1.000000000000000000, 6.938893903907227145E-17, 0.000000000000000000 ) ) ;
#174 = CARTESIAN_POINT ( 'NONE',  ( 0.4429133858267716994, 5.424124602522726620E-17, 0.03228346456692913341 ) ) ;
#175 = CARTESIAN_POINT ( 'NONE',  ( 0.000000000000000000, 0.000000000000000000, 0.03228346456692913341 ) ) ;
#176 = VECTOR ( 'NONE', #215, 39.37007874015748143 ) ;
#177 = ADVANCED_FACE ( 'NONE', ( #48, #266 ), #149, .T. ) ;
#178 = PERSON_AND_ORGANIZATION ( #152, #86 ) ;
#179 = CARTESIAN_POINT ( 'NONE',  ( 0.000000000000000000, 0.000000000000000000, 0.03228346456692913341 ) ) ;
#180 = APPROVAL_PERSON_ORGANIZATION ( #236, #150, #137 ) ;
#181 = PERSON_AND_ORGANIZATION ( #152, #86 ) ;
#182 = DIRECTION ( 'NONE',  ( 0.000000000000000000, 0.000000000000000000, 1.000000000000000000 ) ) ;
#183 = DIRECTION ( 'NONE',  ( 1.000000000000000000, 1.387778780781445676E-16, -0.000000000000000000 ) ) ;
#184 = CARTESIAN_POINT ( 'NONE',  ( -0.9842519685039369248, -0.9842519685039372579, 0.03228346456692913341 ) ) ;
#185 = ORIENTED_EDGE ( 'NONE', *, *, #39, .F. ) ;
#186 = COORDINATED_UNIVERSAL_TIME_OFFSET ( 5, 0, .BEHIND. ) ;
#187 = EDGE_CURVE ( 'NONE', #115, #145, #248, .T. ) ;
#188 = EDGE_LOOP ( 'NONE', ( #90, #244, #309, #83 ) ) ;
#189 = CARTESIAN_POINT ( 'NONE',  ( -0.9842519685039369248, 0.9842519685039369248, 0.03228346456692913341 ) ) ;
#190 = VERTEX_POINT ( 'NONE', #174 ) ;
#191 = EDGE_CURVE ( 'NONE', #145, #115, #118, .T. ) ;
#192 = AXIS2_PLACEMENT_3D ( 'NONE', #127, #217, #247 ) ;
#193 = FACE_OUTER_BOUND ( 'NONE', #210, .T. ) ;
#194 = CARTESIAN_POINT ( 'NONE',  ( 0.9842519685039372579, 0.9842519685039372579, 0.03228346456692913341 ) ) ;
#195 = CARTESIAN_POINT ( 'NONE',  ( 0.9842519685039372579, 0.9842519685039372579, 0.03228346456692913341 ) ) ;
#196 = CC_DESIGN_DATE_AND_TIME_ASSIGNMENT ( #117, #238, ( #311 ) ) ;
#197 = FACE_BOUND ( 'NONE', #110, .T. ) ;
#198 = FACE_OUTER_BOUND ( 'NONE', #310, .T. ) ;
#199 = CARTESIAN_POINT ( 'NONE',  ( 0.9842519685039370358, -0.9842519685039369248, 0.03228346456692913341 ) ) ;
#200 = PERSON_AND_ORGANIZATION_ROLE ( 'design_supplier' ) ;
#201 = LINE ( 'NONE', #295, #62 ) ;
#202 =( NAMED_UNIT ( * ) PLANE_ANGLE_UNIT ( ) SI_UNIT ( $, .RADIAN. ) );
#203 = CALENDAR_DATE ( 2023, 8, 8 ) ;
#204 = EDGE_CURVE ( 'NONE', #263, #308, #6, .T. ) ;
#205 = DIRECTION ( 'NONE',  ( -1.387778780781445429E-16, 1.000000000000000000, 0.000000000000000000 ) ) ;
#206 = CALENDAR_DATE ( 2023, 8, 8 ) ;
#207 = CARTESIAN_POINT ( 'NONE',  ( 0.9842519685039372579, 0.9842519685039372579, 0.000000000000000000 ) ) ;
#208 = ORIENTED_EDGE ( 'NONE', *, *, #224, .T. ) ;
#209 = APPROVAL_STATUS ( 'not_yet_approved' ) ;
#210 = EDGE_LOOP ( 'NONE', ( #43, #65, #140, #261 ) ) ;
#211 = ORIENTED_EDGE ( 'NONE', *, *, #191, .T. ) ;
#212 = VERTEX_POINT ( 'NONE', #102 ) ;
#213 = VECTOR ( 'NONE', #70, 39.37007874015748143 ) ;
#214 = AXIS2_PLACEMENT_3D ( 'NONE', #175, #272, #95 ) ;
#215 = DIRECTION ( 'NONE',  ( -0.000000000000000000, -0.000000000000000000, -1.000000000000000000 ) ) ;
#216 = EDGE_CURVE ( 'NONE', #114, #263, #257, .T. ) ;
#217 = DIRECTION ( 'NONE',  ( -0.000000000000000000, -0.000000000000000000, -1.000000000000000000 ) ) ;
#218 = DIRECTION ( 'NONE',  ( 0.000000000000000000, 0.000000000000000000, 1.000000000000000000 ) ) ;
#219 = EDGE_CURVE ( 'NONE', #64, #263, #161, .T. ) ;
#220 = CARTESIAN_POINT ( 'NONE',  ( 0.9842519685039370358, -0.9842519685039369248, 0.000000000000000000 ) ) ;
#221 = CARTESIAN_POINT ( 'NONE',  ( 0.000000000000000000, 0.000000000000000000, 0.000000000000000000 ) ) ;
#222 = APPROVAL_DATE_TIME ( #113, #306 ) ;
#223 = CARTESIAN_POINT ( 'NONE',  ( 0.9842519685039370358, -0.9842519685039369248, 0.03228346456692913341 ) ) ;
#224 = EDGE_CURVE ( 'NONE', #64, #212, #159, .T. ) ;
#225 = CARTESIAN_POINT ( 'NONE',  ( 0.9842519685039370358, -0.9842519685039369248, 0.03228346456692913341 ) ) ;
#226 = AXIS2_PLACEMENT_3D ( 'NONE', #132, #182, #281 ) ;
#227 = DATE_TIME_ROLE ( 'creation_date' ) ;
#228 =( LENGTH_UNIT ( ) NAMED_UNIT ( * ) SI_UNIT ( $, .METRE. ) );
#229 = APPROVAL_ROLE ( '' ) ;
#230 = PERSON_AND_ORGANIZATION_ROLE ( 'design_owner' ) ;
#231 = AXIS2_PLACEMENT_3D ( 'NONE', #29, #218, #72 ) ;
#232 = CC_DESIGN_DATE_AND_TIME_ASSIGNMENT ( #57, #227, ( #104 ) ) ;
#233 = EDGE_LOOP ( 'NONE', ( #82, #258, #166, #84 ) ) ;
#234 = CALENDAR_DATE ( 2023, 8, 8 ) ;
#235 = ORIENTED_EDGE ( 'NONE', *, *, #160, .F. ) ;
#236 = PERSON_AND_ORGANIZATION ( #152, #86 ) ;
#237 = VERTEX_POINT ( 'NONE', #255 ) ;
#238 = DATE_TIME_ROLE ( 'classification_date' ) ;
#239 = FACE_OUTER_BOUND ( 'NONE', #144, .T. ) ;
#240 = PERSON_AND_ORGANIZATION_ROLE ( 'classification_officer' ) ;
#241 = ORIENTED_EDGE ( 'NONE', *, *, #164, .T. ) ;
#242 = CARTESIAN_POINT ( 'NONE',  ( -0.9842519685039369248, -0.9842519685039372579, 0.03228346456692913341 ) ) ;
#243 = AXIS2_PLACEMENT_3D ( 'NONE', #242, #45, #92 ) ;
#244 = ORIENTED_EDGE ( 'NONE', *, *, #245, .F. ) ;
#245 = EDGE_CURVE ( 'NONE', #237, #114, #107, .T. ) ;
#246 = CARTESIAN_POINT ( 'NONE',  ( 0.000000000000000000, 0.000000000000000000, 0.03228346456692913341 ) ) ;
#247 = DIRECTION ( 'NONE',  ( -1.000000000000000000, 0.000000000000000000, 0.000000000000000000 ) ) ;
#248 = CIRCLE ( 'NONE', #231, 0.4429133858267716994 ) ;
#249 = CARTESIAN_POINT ( 'NONE',  ( 0.9842519685039370358, -0.9842519685039369248, 0.03228346456692913341 ) ) ;
#250 = LINE ( 'NONE', #199, #91 ) ;
#251 = CARTESIAN_POINT ( 'NONE',  ( 0.000000000000000000, 0.000000000000000000, 0.03228346456692913341 ) ) ;
#252 = MECHANICAL_CONTEXT ( 'NONE', #280, 'mechanical' ) ;
#253 = CC_DESIGN_PERSON_AND_ORGANIZATION_ASSIGNMENT ( #79, #5, ( #122 ) ) ;
#254 = CARTESIAN_POINT ( 'NONE',  ( -0.9842519685039369248, -0.9842519685039372579, 0.000000000000000000 ) ) ;
#255 = CARTESIAN_POINT ( 'NONE',  ( 0.9842519685039372579, 0.9842519685039372579, 0.000000000000000000 ) ) ;
#256 = VECTOR ( 'NONE', #292, 39.37007874015748143 ) ;
#257 = LINE ( 'NONE', #298, #168 ) ;
#258 = ORIENTED_EDGE ( 'NONE', *, *, #160, .T. ) ;
#259 = DESIGN_CONTEXT ( 'detailed design', #271, 'design' ) ;
#260 = CALENDAR_DATE ( 2023, 8, 8 ) ;
#261 = ORIENTED_EDGE ( 'NONE', *, *, #39, .T. ) ;
#262 = ORIENTED_EDGE ( 'NONE', *, *, #119, .F. ) ;
#263 = VERTEX_POINT ( 'NONE', #254 ) ;
#264 = ORIENTED_EDGE ( 'NONE', *, *, #49, .T. ) ;
#265 = DIRECTION ( 'NONE',  ( -6.938893903907227145E-17, -1.000000000000000000, 0.000000000000000000 ) ) ;
#266 = FACE_BOUND ( 'NONE', #22, .T. ) ;
#267 = CC_DESIGN_PERSON_AND_ORGANIZATION_ASSIGNMENT ( #178, #31, ( #104 ) ) ;
#268 = CARTESIAN_POINT ( 'NONE',  ( 0.000000000000000000, 0.000000000000000000, 0.000000000000000000 ) ) ;
#269 = AXIS2_PLACEMENT_3D ( 'NONE', #225, #205, #301 ) ;
#270 = CIRCLE ( 'NONE', #214, 0.4429133858267716994 ) ;
#271 = APPLICATION_CONTEXT ( 'configuration controlled 3d designs of mechanical parts and assemblies' ) ;
#272 = DIRECTION ( 'NONE',  ( 0.000000000000000000, 0.000000000000000000, 1.000000000000000000 ) ) ;
#273 = PRODUCT_DEFINITION_SHAPE ( 'NONE', 'NONE',  #104 ) ;
#274 = SECURITY_CLASSIFICATION_LEVEL ( 'unclassified' ) ;
#275 = APPROVAL_PERSON_ORGANIZATION ( #16, #306, #38 ) ;
#276 = LINE ( 'NONE', #195, #256 ) ;
#277 = LOCAL_TIME ( 10, 58, 1.000000000000000000, #106 ) ;
#278 = CC_DESIGN_PERSON_AND_ORGANIZATION_ASSIGNMENT ( #134, #230, ( #155 ) ) ;
#279 = ADVANCED_BREP_SHAPE_REPRESENTATION ( 'ECX2640', ( #10, #226 ), #103 ) ;
#280 = APPLICATION_CONTEXT ( 'configuration controlled 3d designs of mechanical parts and assemblies' ) ;
#281 = DIRECTION ( 'NONE',  ( 1.000000000000000000, 0.000000000000000000, 0.000000000000000000 ) ) ;
#282 = CARTESIAN_POINT ( 'NONE',  ( -0.9842519685039369248, -0.9842519685039372579, 0.03228346456692913341 ) ) ;
#283 = CC_DESIGN_APPROVAL ( #150, ( #311 ) ) ;
#284 = ORIENTED_EDGE ( 'NONE', *, *, #96, .T. ) ;
#285 = CLOSED_SHELL ( 'NONE', ( #60, #177, #56, #18, #290, #171, #33, #146 ) ) ;
#286 = ORIENTED_EDGE ( 'NONE', *, *, #69, .T. ) ;
#287 = ORIENTED_EDGE ( 'NONE', *, *, #187, .F. ) ;
#288 = ORIENTED_EDGE ( 'NONE', *, *, #245, .T. ) ;
#289 = AXIS2_PLACEMENT_3D ( 'NONE', #268, #52, #154 ) ;
#290 = ADVANCED_FACE ( 'NONE', ( #77 ), #14, .F. ) ;
#291 = PLANE ( 'NONE',  #148 ) ;
#292 = DIRECTION ( 'NONE',  ( -1.000000000000000000, -1.387778780781445676E-16, 0.000000000000000000 ) ) ;
#293 = DIRECTION ( 'NONE',  ( 0.000000000000000000, 0.000000000000000000, 1.000000000000000000 ) ) ;
#294 = DIRECTION ( 'NONE',  ( 6.938893903907228378E-17, 1.000000000000000000, 0.000000000000000000 ) ) ;
#295 = CARTESIAN_POINT ( 'NONE',  ( -0.4429133858267716994, 0.000000000000000000, 0.03228346456692913341 ) ) ;
#296 = LINE ( 'NONE', #314, #13 ) ;
#297 = EDGE_CURVE ( 'NONE', #212, #308, #129, .T. ) ;
#298 = CARTESIAN_POINT ( 'NONE',  ( -0.9842519685039369248, -0.9842519685039372579, 0.000000000000000000 ) ) ;
#299 = CC_DESIGN_APPROVAL ( #306, ( #104 ) ) ;
#300 = DATE_AND_TIME ( #206, #277 ) ;
#301 = DIRECTION ( 'NONE',  ( -1.000000000000000000, -1.387778780781445429E-16, 0.000000000000000000 ) ) ;
#302 = DIRECTION ( 'NONE',  ( -0.000000000000000000, -1.000000000000000000, -0.000000000000000000 ) ) ;
#303 = EDGE_LOOP ( 'NONE', ( #235, #63, #284, #287 ) ) ;
#304 = LINE ( 'NONE', #282, #50 ) ;
#305 = ORIENTED_EDGE ( 'NONE', *, *, #313, .T. ) ;
#306 = APPROVAL ( #209, 'UNSPECIFIED' ) ;
#307 = ORIENTED_EDGE ( 'NONE', *, *, #297, .T. ) ;
#308 = VERTEX_POINT ( 'NONE', #61 ) ;
#309 = ORIENTED_EDGE ( 'NONE', *, *, #169, .F. ) ;
#310 = EDGE_LOOP ( 'NONE', ( #24, #88, #17, #307 ) ) ;
#311 = SECURITY_CLASSIFICATION ( '', '', #274 ) ;
#312 = DIRECTION ( 'NONE',  ( 1.000000000000000000, 0.000000000000000000, 0.000000000000000000 ) ) ;
#313 = EDGE_CURVE ( 'NONE', #42, #64, #304, .T. ) ;
#314 = CARTESIAN_POINT ( 'NONE',  ( 0.9842519685039372579, 0.9842519685039372579, 0.03228346456692913341 ) ) ;
ENDSEC;
END-ISO-10303-21;
