ISO-10303-21;
HEADER;
FILE_DESCRIPTION (( 'STEP AP214' ),
    '1' );
FILE_NAME ('E21232.STEP',
    '2024-01-10T11:13:39',
    ( '' ),
    ( '' ),
    'SwSTEP 2.0',
    'SolidWorks 2023',
    '' );
FILE_SCHEMA (( 'AUTOMOTIVE_DESIGN' ));
ENDSEC;

DATA;
#1 = AXIS2_PLACEMENT_3D ( 'NONE', #20, #108, #124 ) ;
#2 = FACE_OUTER_BOUND ( 'NONE', #10, .T. ) ;
#3 =( NAMED_UNIT ( * ) SI_UNIT ( $, .STERADIAN. ) SOLID_ANGLE_UNIT ( ) );
#4 =( NAMED_UNIT ( * ) PLANE_ANGLE_UNIT ( ) SI_UNIT ( $, .RADIAN. ) );
#5 = PRODUCT_DEFINITION_FORMATION_WITH_SPECIFIED_SOURCE ( 'ANY', '', #16, .NOT_KNOWN. ) ;
#6 = DIRECTION ( 'NONE',  ( -0.000000000000000000, 1.000000000000000000, -0.000000000000000000 ) ) ;
#7 = DIRECTION ( 'NONE',  ( 0.000000000000000000, -0.000000000000000000, 1.000000000000000000 ) ) ;
#8 = STYLED_ITEM ( 'NONE', ( #112 ), #119 ) ;
#9 = EDGE_LOOP ( 'NONE', ( #99 ) ) ;
#10 = EDGE_LOOP ( 'NONE', ( #75 ) ) ;
#11 = DIRECTION ( 'NONE',  ( -0.000000000000000000, 1.000000000000000000, -0.000000000000000000 ) ) ;
#12 = DIRECTION ( 'NONE',  ( 0.000000000000000000, -0.000000000000000000, 1.000000000000000000 ) ) ;
#13 = AXIS2_PLACEMENT_3D ( 'NONE', #126, #49, #42 ) ;
#14 = CARTESIAN_POINT ( 'NONE',  ( 0.000000000000000000, 9.842519685039370358, 0.2559055118110238336 ) ) ;
#15 = CIRCLE ( 'NONE', #62, 0.2559055118110238336 ) ;
#16 = PRODUCT ( 'E21232', 'E21232', '', ( #54 ) ) ;
#17 = CYLINDRICAL_SURFACE ( 'NONE', #107, 0.2755905511811023723 ) ;
#18 = ADVANCED_FACE ( 'NONE', ( #31, #77 ), #55, .T. ) ;
#19 = COLOUR_RGB ( '',0.7921568627450980005, 0.8196078431372548767, 0.9333333333333333481 ) ;
#20 = CARTESIAN_POINT ( 'NONE',  ( 0.000000000000000000, 9.842519685039370358, 0.000000000000000000 ) ) ;
#21 = DIRECTION ( 'NONE',  ( -0.000000000000000000, -1.000000000000000000, -0.000000000000000000 ) ) ;
#22 = DIRECTION ( 'NONE',  ( 0.000000000000000000, 1.000000000000000000, 0.000000000000000000 ) ) ;
#23 = CARTESIAN_POINT ( 'NONE',  ( 0.000000000000000000, 9.842519685039370358, 0.000000000000000000 ) ) ;
#24 = CARTESIAN_POINT ( 'NONE',  ( 0.000000000000000000, -9.822834645669288989, 0.000000000000000000 ) ) ;
#25 = PRODUCT_DEFINITION_CONTEXT ( 'detailed design', #67, 'design' ) ;
#26 = FACE_OUTER_BOUND ( 'NONE', #121, .T. ) ;
#27 = CARTESIAN_POINT ( 'NONE',  ( 0.000000000000000000, 9.822834645669292541, 0.000000000000000000 ) ) ;
#28 = ORIENTED_EDGE ( 'NONE', *, *, #105, .F. ) ;
#29 = CLOSED_SHELL ( 'NONE', ( #94, #125, #56, #68, #18 ) ) ;
#30 = ORIENTED_EDGE ( 'NONE', *, *, #129, .F. ) ;
#31 = FACE_OUTER_BOUND ( 'NONE', #86, .T. ) ;
#32 = VERTEX_POINT ( 'NONE', #127 ) ;
#33 = DIRECTION ( 'NONE',  ( 0.000000000000000000, 0.000000000000000000, 1.000000000000000000 ) ) ;
#34 = SURFACE_STYLE_FILL_AREA ( #58 ) ;
#35 = PRESENTATION_LAYER_ASSIGNMENT (  '', '', ( #8 ) ) ;
#36 = AXIS2_PLACEMENT_3D ( 'NONE', #38, #87, #12 ) ;
#37 = EDGE_CURVE ( 'NONE', #114, #114, #72, .T. ) ;
#38 = CARTESIAN_POINT ( 'NONE',  ( 0.000000000000000000, -9.842519685039370358, 0.000000000000000000 ) ) ;
#39 = FACE_BOUND ( 'NONE', #88, .T. ) ;
#40 =( NAMED_UNIT ( * ) SI_UNIT ( $, .STERADIAN. ) SOLID_ANGLE_UNIT ( ) );
#41 = PLANE ( 'NONE',  #44 ) ;
#42 = DIRECTION ( 'NONE',  ( 0.000000000000000000, 0.000000000000000000, 1.000000000000000000 ) ) ;
#43 = CARTESIAN_POINT ( 'NONE',  ( 0.000000000000000000, 9.822834645669292541, 0.2755905511811023723 ) ) ;
#44 = AXIS2_PLACEMENT_3D ( 'NONE', #91, #104, #7 ) ;
#45 = SHAPE_DEFINITION_REPRESENTATION ( #128, #51 ) ;
#46 = PRODUCT_RELATED_PRODUCT_CATEGORY ( 'part', '', ( #16 ) ) ;
#47 = PLANE ( 'NONE',  #36 ) ;
#48 = DIRECTION ( 'NONE',  ( 0.000000000000000000, 0.000000000000000000, 1.000000000000000000 ) ) ;
#49 = DIRECTION ( 'NONE',  ( -0.000000000000000000, -1.000000000000000000, -0.000000000000000000 ) ) ;
#50 = AXIS2_PLACEMENT_3D ( 'NONE', #27, #100, #48 ) ;
#51 = ADVANCED_BREP_SHAPE_REPRESENTATION ( 'E21232', ( #119, #115 ), #122 ) ;
#52 =( CONVERSION_BASED_UNIT ( 'INCH', #102 ) LENGTH_UNIT ( ) NAMED_UNIT ( #120 ) );
#53 = APPLICATION_PROTOCOL_DEFINITION ( 'draft international standard', 'automotive_design', 1998, #117 ) ;
#54 = PRODUCT_CONTEXT ( 'NONE', #117, 'mechanical' ) ;
#55 = CONICAL_SURFACE ( 'NONE', #1, 0.2559055118110238336, 0.7853981633974699283 ) ;
#56 = ADVANCED_FACE ( 'NONE', ( #123 ), #47, .F. ) ;
#57 = EDGE_LOOP ( 'NONE', ( #96 ) ) ;
#58 = FILL_AREA_STYLE ('',( #69 ) ) ;
#59 = EDGE_CURVE ( 'NONE', #92, #92, #103, .T. ) ;
#60 = DIRECTION ( 'NONE',  ( 0.000000000000000000, 0.000000000000000000, 1.000000000000000000 ) ) ;
#61 =( NAMED_UNIT ( * ) PLANE_ANGLE_UNIT ( ) SI_UNIT ( $, .RADIAN. ) );
#62 = AXIS2_PLACEMENT_3D ( 'NONE', #63, #22, #33 ) ;
#63 = CARTESIAN_POINT ( 'NONE',  ( 0.000000000000000000, 9.842519685039370358, 0.000000000000000000 ) ) ;
#64 = CIRCLE ( 'NONE', #13, 0.2559055118110216687 ) ;
#65 = CARTESIAN_POINT ( 'NONE',  ( 0.000000000000000000, -9.822834645669288989, 0.000000000000000000 ) ) ;
#66 = ORIENTED_EDGE ( 'NONE', *, *, #37, .F. ) ;
#67 = APPLICATION_CONTEXT ( 'automotive_design' ) ;
#68 = ADVANCED_FACE ( 'NONE', ( #39, #26 ), #95, .T. ) ;
#69 = FILL_AREA_STYLE_COLOUR ( '', #19 ) ;
#70 =( LENGTH_UNIT ( ) NAMED_UNIT ( * ) SI_UNIT ( $, .METRE. ) );
#71 =( LENGTH_UNIT ( ) NAMED_UNIT ( * ) SI_UNIT ( $, .METRE. ) );
#72 = CIRCLE ( 'NONE', #89, 0.2755905511811023723 ) ;
#73 = DIRECTION ( 'NONE',  ( 1.000000000000000000, 0.000000000000000000, 0.000000000000000000 ) ) ;
#74 = CARTESIAN_POINT ( 'NONE',  ( 0.000000000000000000, 0.000000000000000000, 0.000000000000000000 ) ) ;
#75 = ORIENTED_EDGE ( 'NONE', *, *, #105, .T. ) ;
#76 = DIRECTION ( 'NONE',  ( 0.000000000000000000, 0.000000000000000000, 1.000000000000000000 ) ) ;
#77 = FACE_BOUND ( 'NONE', #110, .T. ) ;
#78 = MECHANICAL_DESIGN_GEOMETRIC_PRESENTATION_REPRESENTATION (  '', ( #8 ), #109 ) ;
#79 = DIRECTION ( 'NONE',  ( 0.000000000000000000, 0.000000000000000000, -1.000000000000000000 ) ) ;
#80 = VERTEX_POINT ( 'NONE', #14 ) ;
#81 = CARTESIAN_POINT ( 'NONE',  ( 0.000000000000000000, -9.822834645669288989, 0.2755905511811023723 ) ) ;
#82 = DIMENSIONAL_EXPONENTS ( 1.000000000000000000, 0.000000000000000000, 0.000000000000000000, 0.000000000000000000, 0.000000000000000000, 0.000000000000000000, 0.000000000000000000 ) ;
#83 = SURFACE_STYLE_USAGE ( .BOTH. , #101 ) ;
#84 = UNCERTAINTY_MEASURE_WITH_UNIT (LENGTH_MEASURE( 1.000000000000000082E-05 ), #52, 'distance_accuracy_value', 'NONE');
#85 = AXIS2_PLACEMENT_3D ( 'NONE', #24, #6, #60 ) ;
#86 = EDGE_LOOP ( 'NONE', ( #98 ) ) ;
#87 = DIRECTION ( 'NONE',  ( 0.000000000000000000, 1.000000000000000000, 0.000000000000000000 ) ) ;
#88 = EDGE_LOOP ( 'NONE', ( #30 ) ) ;
#89 = AXIS2_PLACEMENT_3D ( 'NONE', #65, #11, #76 ) ;
#90 =( CONVERSION_BASED_UNIT ( 'INCH', #113 ) LENGTH_UNIT ( ) NAMED_UNIT ( #82 ) );
#91 = CARTESIAN_POINT ( 'NONE',  ( 0.000000000000000000, 9.842519685039370358, 0.000000000000000000 ) ) ;
#92 = VERTEX_POINT ( 'NONE', #43 ) ;
#93 = FACE_OUTER_BOUND ( 'NONE', #131, .T. ) ;
#94 = ADVANCED_FACE ( 'NONE', ( #93, #111 ), #17, .T. ) ;
#95 = CONICAL_SURFACE ( 'NONE', #85, 0.2755905511811023723, 0.7853981633974421728 ) ;
#96 = ORIENTED_EDGE ( 'NONE', *, *, #129, .T. ) ;
#97 = PRODUCT_DEFINITION ( 'UNKNOWN', '', #5, #25 ) ;
#98 = ORIENTED_EDGE ( 'NONE', *, *, #59, .F. ) ;
#99 = ORIENTED_EDGE ( 'NONE', *, *, #59, .T. ) ;
#100 = DIRECTION ( 'NONE',  ( 0.000000000000000000, -1.000000000000000000, 0.000000000000000000 ) ) ;
#101 = SURFACE_SIDE_STYLE ('',( #34 ) ) ;
#102 = LENGTH_MEASURE_WITH_UNIT ( LENGTH_MEASURE( 0.02539999999999999897 ), #71 );
#103 = CIRCLE ( 'NONE', #50, 0.2755905511811023723 ) ;
#104 = DIRECTION ( 'NONE',  ( 0.000000000000000000, 1.000000000000000000, 0.000000000000000000 ) ) ;
#105 = EDGE_CURVE ( 'NONE', #80, #80, #15, .T. ) ;
#106 = APPLICATION_PROTOCOL_DEFINITION ( 'draft international standard', 'automotive_design', 1998, #67 ) ;
#107 = AXIS2_PLACEMENT_3D ( 'NONE', #23, #21, #79 ) ;
#108 = DIRECTION ( 'NONE',  ( 0.000000000000000000, -1.000000000000000000, 0.000000000000000000 ) ) ;
#109 =( GEOMETRIC_REPRESENTATION_CONTEXT ( 3 ) GLOBAL_UNCERTAINTY_ASSIGNED_CONTEXT ( ( #84 ) ) GLOBAL_UNIT_ASSIGNED_CONTEXT ( ( #52, #4, #3 ) ) REPRESENTATION_CONTEXT ( 'NONE', 'WORKASPACE' ) );
#110 = EDGE_LOOP ( 'NONE', ( #28 ) ) ;
#111 = FACE_OUTER_BOUND ( 'NONE', #9, .T. ) ;
#112 = PRESENTATION_STYLE_ASSIGNMENT (( #83 ) ) ;
#113 = LENGTH_MEASURE_WITH_UNIT ( LENGTH_MEASURE( 0.02539999999999999897 ), #70 );
#114 = VERTEX_POINT ( 'NONE', #81 ) ;
#115 = AXIS2_PLACEMENT_3D ( 'NONE', #74, #118, #73 ) ;
#116 = UNCERTAINTY_MEASURE_WITH_UNIT (LENGTH_MEASURE( 1.000000000000000082E-05 ), #90, 'distance_accuracy_value', 'NONE');
#117 = APPLICATION_CONTEXT ( 'automotive_design' ) ;
#118 = DIRECTION ( 'NONE',  ( 0.000000000000000000, 0.000000000000000000, 1.000000000000000000 ) ) ;
#119 = MANIFOLD_SOLID_BREP ( 'Chamfer1', #29 ) ;
#120 = DIMENSIONAL_EXPONENTS ( 1.000000000000000000, 0.000000000000000000, 0.000000000000000000, 0.000000000000000000, 0.000000000000000000, 0.000000000000000000, 0.000000000000000000 ) ;
#121 = EDGE_LOOP ( 'NONE', ( #66 ) ) ;
#122 =( GEOMETRIC_REPRESENTATION_CONTEXT ( 3 ) GLOBAL_UNCERTAINTY_ASSIGNED_CONTEXT ( ( #116 ) ) GLOBAL_UNIT_ASSIGNED_CONTEXT ( ( #90, #61, #40 ) ) REPRESENTATION_CONTEXT ( 'NONE', 'WORKASPACE' ) );
#123 = FACE_OUTER_BOUND ( 'NONE', #57, .T. ) ;
#124 = DIRECTION ( 'NONE',  ( 0.000000000000000000, 0.000000000000000000, -1.000000000000000000 ) ) ;
#125 = ADVANCED_FACE ( 'NONE', ( #2 ), #41, .T. ) ;
#126 = CARTESIAN_POINT ( 'NONE',  ( 0.000000000000000000, -9.842519685039370358, 0.000000000000000000 ) ) ;
#127 = CARTESIAN_POINT ( 'NONE',  ( 0.000000000000000000, -9.842519685039370358, 0.2559055118110216687 ) ) ;
#128 = PRODUCT_DEFINITION_SHAPE ( 'NONE', 'NONE',  #97 ) ;
#129 = EDGE_CURVE ( 'NONE', #32, #32, #64, .T. ) ;
#130 = ORIENTED_EDGE ( 'NONE', *, *, #37, .T. ) ;
#131 = EDGE_LOOP ( 'NONE', ( #130 ) ) ;
ENDSEC;
END-ISO-10303-21;
