ISO-10303-21;
HEADER;
FILE_DESCRIPTION (( 'STEP AP214' ),
    '1' );
FILE_NAME ('E21229.STEP',
    '2024-01-10T11:13:01',
    ( '' ),
    ( '' ),
    'SwSTEP 2.0',
    'SolidWorks 2023',
    '' );
FILE_SCHEMA (( 'AUTOMOTIVE_DESIGN' ));
ENDSEC;

DATA;
#1 = CARTESIAN_POINT ( 'NONE',  ( 0.000000000000000000, 0.000000000000000000, 0.000000000000000000 ) ) ;
#2 = EDGE_LOOP ( 'NONE', ( #118 ) ) ;
#3 = EDGE_CURVE ( 'NONE', #20, #20, #80, .T. ) ;
#4 = DIRECTION ( 'NONE',  ( 0.000000000000000000, 0.000000000000000000, -1.000000000000000000 ) ) ;
#5 = SURFACE_STYLE_USAGE ( .BOTH. , #55 ) ;
#6 = CONICAL_SURFACE ( 'NONE', #26, 0.2559055118110238336, 0.7853981633974421728 ) ;
#7 = ADVANCED_FACE ( 'NONE', ( #65, #64 ), #125, .T. ) ;
#8 = PLANE ( 'NONE',  #102 ) ;
#9 = FACE_BOUND ( 'NONE', #109, .T. ) ;
#10 =( GEOMETRIC_REPRESENTATION_CONTEXT ( 3 ) GLOBAL_UNCERTAINTY_ASSIGNED_CONTEXT ( ( #114 ) ) GLOBAL_UNIT_ASSIGNED_CONTEXT ( ( #111, #122, #81 ) ) REPRESENTATION_CONTEXT ( 'NONE', 'WORKASPACE' ) );
#11 = APPLICATION_CONTEXT ( 'automotive_design' ) ;
#12 = ORIENTED_EDGE ( 'NONE', *, *, #44, .F. ) ;
#13 = DIRECTION ( 'NONE',  ( 0.000000000000000000, -1.000000000000000000, 0.000000000000000000 ) ) ;
#14 = FILL_AREA_STYLE_COLOUR ( '', #31 ) ;
#15 = SURFACE_STYLE_FILL_AREA ( #100 ) ;
#16 = AXIS2_PLACEMENT_3D ( 'NONE', #53, #93, #32 ) ;
#17 = CARTESIAN_POINT ( 'NONE',  ( 0.000000000000000000, -5.905511811023622215, 0.000000000000000000 ) ) ;
#18 = CARTESIAN_POINT ( 'NONE',  ( 0.000000000000000000, -5.905511811023622215, 0.000000000000000000 ) ) ;
#19 = AXIS2_PLACEMENT_3D ( 'NONE', #99, #45, #4 ) ;
#20 = VERTEX_POINT ( 'NONE', #130 ) ;
#21 = LENGTH_MEASURE_WITH_UNIT ( LENGTH_MEASURE( 0.02539999999999999897 ), #91 );
#22 = DIRECTION ( 'NONE',  ( 0.000000000000000000, 0.000000000000000000, 1.000000000000000000 ) ) ;
#23 =( GEOMETRIC_REPRESENTATION_CONTEXT ( 3 ) GLOBAL_UNCERTAINTY_ASSIGNED_CONTEXT ( ( #36 ) ) GLOBAL_UNIT_ASSIGNED_CONTEXT ( ( #83, #67, #43 ) ) REPRESENTATION_CONTEXT ( 'NONE', 'WORKASPACE' ) );
#24 = DIRECTION ( 'NONE',  ( 0.000000000000000000, 0.000000000000000000, 1.000000000000000000 ) ) ;
#25 = ORIENTED_EDGE ( 'NONE', *, *, #44, .T. ) ;
#26 = AXIS2_PLACEMENT_3D ( 'NONE', #82, #68, #42 ) ;
#27 = ADVANCED_FACE ( 'NONE', ( #37, #73 ), #85, .T. ) ;
#28 = PRESENTATION_LAYER_ASSIGNMENT (  '', '', ( #70 ) ) ;
#29 = AXIS2_PLACEMENT_3D ( 'NONE', #1, #22, #124 ) ;
#30 = MANIFOLD_SOLID_BREP ( 'Chamfer1', #60 ) ;
#31 = COLOUR_RGB ( '',0.7921568627450980005, 0.8196078431372548767, 0.9333333333333333481 ) ;
#32 = DIRECTION ( 'NONE',  ( 0.000000000000000000, 0.000000000000000000, 1.000000000000000000 ) ) ;
#33 = CARTESIAN_POINT ( 'NONE',  ( 0.000000000000000000, -5.905511811023622215, 0.2559055118110260540 ) ) ;
#34 = CARTESIAN_POINT ( 'NONE',  ( 0.000000000000000000, 5.905511811023622215, 0.000000000000000000 ) ) ;
#35 = CIRCLE ( 'NONE', #16, 0.2559055118110238336 ) ;
#36 = UNCERTAINTY_MEASURE_WITH_UNIT (LENGTH_MEASURE( 1.000000000000000082E-05 ), #83, 'distance_accuracy_value', 'NONE');
#37 = FACE_BOUND ( 'NONE', #38, .T. ) ;
#38 = EDGE_LOOP ( 'NONE', ( #78 ) ) ;
#39 = AXIS2_PLACEMENT_3D ( 'NONE', #34, #48, #103 ) ;
#40 = VERTEX_POINT ( 'NONE', #95 ) ;
#41 = AXIS2_PLACEMENT_3D ( 'NONE', #50, #71, #129 ) ;
#42 = DIRECTION ( 'NONE',  ( 0.000000000000000000, 0.000000000000000000, -1.000000000000000000 ) ) ;
#43 =( NAMED_UNIT ( * ) SI_UNIT ( $, .STERADIAN. ) SOLID_ANGLE_UNIT ( ) );
#44 = EDGE_CURVE ( 'NONE', #40, #40, #35, .T. ) ;
#45 = DIRECTION ( 'NONE',  ( -0.000000000000000000, -1.000000000000000000, -0.000000000000000000 ) ) ;
#46 = ORIENTED_EDGE ( 'NONE', *, *, #3, .T. ) ;
#47 = EDGE_LOOP ( 'NONE', ( #87 ) ) ;
#48 = DIRECTION ( 'NONE',  ( 0.000000000000000000, 1.000000000000000000, 0.000000000000000000 ) ) ;
#49 = APPLICATION_CONTEXT ( 'automotive_design' ) ;
#50 = CARTESIAN_POINT ( 'NONE',  ( 0.000000000000000000, -5.885826771653545286, 0.000000000000000000 ) ) ;
#51 = APPLICATION_PROTOCOL_DEFINITION ( 'draft international standard', 'automotive_design', 1998, #11 ) ;
#52 = AXIS2_PLACEMENT_3D ( 'NONE', #107, #13, #110 ) ;
#53 = CARTESIAN_POINT ( 'NONE',  ( 0.000000000000000000, 5.905511811023622215, 0.000000000000000000 ) ) ;
#54 = CIRCLE ( 'NONE', #63, 0.2559055118110260540 ) ;
#55 = SURFACE_SIDE_STYLE ('',( #15 ) ) ;
#56 = VERTEX_POINT ( 'NONE', #57 ) ;
#57 = CARTESIAN_POINT ( 'NONE',  ( 0.000000000000000000, -5.885826771653545286, 0.2755905511811023723 ) ) ;
#58 = DIRECTION ( 'NONE',  ( 0.000000000000000000, -0.000000000000000000, 1.000000000000000000 ) ) ;
#59 = PRODUCT_DEFINITION_CONTEXT ( 'detailed design', #11, 'design' ) ;
#60 = CLOSED_SHELL ( 'NONE', ( #7, #97, #72, #27, #127 ) ) ;
#61 = EDGE_CURVE ( 'NONE', #56, #56, #121, .T. ) ;
#62 = EDGE_LOOP ( 'NONE', ( #46 ) ) ;
#63 = AXIS2_PLACEMENT_3D ( 'NONE', #17, #128, #120 ) ;
#64 = FACE_OUTER_BOUND ( 'NONE', #62, .T. ) ;
#65 = FACE_OUTER_BOUND ( 'NONE', #115, .T. ) ;
#66 = PRODUCT_DEFINITION_SHAPE ( 'NONE', 'NONE',  #75 ) ;
#67 =( NAMED_UNIT ( * ) PLANE_ANGLE_UNIT ( ) SI_UNIT ( $, .RADIAN. ) );
#68 = DIRECTION ( 'NONE',  ( 0.000000000000000000, -1.000000000000000000, 0.000000000000000000 ) ) ;
#69 = PRESENTATION_STYLE_ASSIGNMENT (( #5 ) ) ;
#70 = STYLED_ITEM ( 'NONE', ( #69 ), #30 ) ;
#71 = DIRECTION ( 'NONE',  ( -0.000000000000000000, 1.000000000000000000, -0.000000000000000000 ) ) ;
#72 = ADVANCED_FACE ( 'NONE', ( #113 ), #8, .F. ) ;
#73 = FACE_OUTER_BOUND ( 'NONE', #88, .T. ) ;
#74 = PRODUCT_CONTEXT ( 'NONE', #49, 'mechanical' ) ;
#75 = PRODUCT_DEFINITION ( 'UNKNOWN', '', #89, #59 ) ;
#76 = DIRECTION ( 'NONE',  ( -0.000000000000000000, 1.000000000000000000, -0.000000000000000000 ) ) ;
#77 = EDGE_CURVE ( 'NONE', #119, #119, #54, .T. ) ;
#78 = ORIENTED_EDGE ( 'NONE', *, *, #77, .F. ) ;
#79 =( LENGTH_UNIT ( ) NAMED_UNIT ( * ) SI_UNIT ( $, .METRE. ) );
#80 = CIRCLE ( 'NONE', #52, 0.2755905511811023723 ) ;
#81 =( NAMED_UNIT ( * ) SI_UNIT ( $, .STERADIAN. ) SOLID_ANGLE_UNIT ( ) );
#82 = CARTESIAN_POINT ( 'NONE',  ( 0.000000000000000000, 5.905511811023622215, 0.000000000000000000 ) ) ;
#83 =( CONVERSION_BASED_UNIT ( 'INCH', #21 ) LENGTH_UNIT ( ) NAMED_UNIT ( #96 ) );
#84 = ADVANCED_BREP_SHAPE_REPRESENTATION ( 'E21229', ( #30, #29 ), #10 ) ;
#85 = CONICAL_SURFACE ( 'NONE', #117, 0.2755905511811023723, 0.7853981633974422838 ) ;
#86 = PLANE ( 'NONE',  #39 ) ;
#87 = ORIENTED_EDGE ( 'NONE', *, *, #77, .T. ) ;
#88 = EDGE_LOOP ( 'NONE', ( #126 ) ) ;
#89 = PRODUCT_DEFINITION_FORMATION_WITH_SPECIFIED_SOURCE ( 'ANY', '', #98, .NOT_KNOWN. ) ;
#90 = ORIENTED_EDGE ( 'NONE', *, *, #61, .T. ) ;
#91 =( LENGTH_UNIT ( ) NAMED_UNIT ( * ) SI_UNIT ( $, .METRE. ) );
#92 = MECHANICAL_DESIGN_GEOMETRIC_PRESENTATION_REPRESENTATION (  '', ( #70 ), #23 ) ;
#93 = DIRECTION ( 'NONE',  ( 0.000000000000000000, 1.000000000000000000, 0.000000000000000000 ) ) ;
#94 = FACE_OUTER_BOUND ( 'NONE', #2, .T. ) ;
#95 = CARTESIAN_POINT ( 'NONE',  ( 0.000000000000000000, 5.905511811023622215, 0.2559055118110238336 ) ) ;
#96 = DIMENSIONAL_EXPONENTS ( 1.000000000000000000, 0.000000000000000000, 0.000000000000000000, 0.000000000000000000, 0.000000000000000000, 0.000000000000000000, 0.000000000000000000 ) ;
#97 = ADVANCED_FACE ( 'NONE', ( #105 ), #86, .T. ) ;
#98 = PRODUCT ( 'E21229', 'E21229', '', ( #74 ) ) ;
#99 = CARTESIAN_POINT ( 'NONE',  ( 0.000000000000000000, 5.905511811023622215, 0.000000000000000000 ) ) ;
#100 = FILL_AREA_STYLE ('',( #14 ) ) ;
#101 = EDGE_LOOP ( 'NONE', ( #25 ) ) ;
#102 = AXIS2_PLACEMENT_3D ( 'NONE', #18, #104, #58 ) ;
#103 = DIRECTION ( 'NONE',  ( 0.000000000000000000, -0.000000000000000000, 1.000000000000000000 ) ) ;
#104 = DIRECTION ( 'NONE',  ( 0.000000000000000000, 1.000000000000000000, 0.000000000000000000 ) ) ;
#105 = FACE_OUTER_BOUND ( 'NONE', #101, .T. ) ;
#106 = DIMENSIONAL_EXPONENTS ( 1.000000000000000000, 0.000000000000000000, 0.000000000000000000, 0.000000000000000000, 0.000000000000000000, 0.000000000000000000, 0.000000000000000000 ) ;
#107 = CARTESIAN_POINT ( 'NONE',  ( 0.000000000000000000, 5.885826771653543510, 0.000000000000000000 ) ) ;
#108 = CARTESIAN_POINT ( 'NONE',  ( 0.000000000000000000, -5.885826771653545286, 0.000000000000000000 ) ) ;
#109 = EDGE_LOOP ( 'NONE', ( #12 ) ) ;
#110 = DIRECTION ( 'NONE',  ( 0.000000000000000000, 0.000000000000000000, 1.000000000000000000 ) ) ;
#111 =( CONVERSION_BASED_UNIT ( 'INCH', #112 ) LENGTH_UNIT ( ) NAMED_UNIT ( #106 ) );
#112 = LENGTH_MEASURE_WITH_UNIT ( LENGTH_MEASURE( 0.02539999999999999897 ), #79 );
#113 = FACE_OUTER_BOUND ( 'NONE', #47, .T. ) ;
#114 = UNCERTAINTY_MEASURE_WITH_UNIT (LENGTH_MEASURE( 1.000000000000000082E-05 ), #111, 'distance_accuracy_value', 'NONE');
#115 = EDGE_LOOP ( 'NONE', ( #90 ) ) ;
#116 = SHAPE_DEFINITION_REPRESENTATION ( #66, #84 ) ;
#117 = AXIS2_PLACEMENT_3D ( 'NONE', #108, #76, #24 ) ;
#118 = ORIENTED_EDGE ( 'NONE', *, *, #3, .F. ) ;
#119 = VERTEX_POINT ( 'NONE', #33 ) ;
#120 = DIRECTION ( 'NONE',  ( 0.000000000000000000, 0.000000000000000000, 1.000000000000000000 ) ) ;
#121 = CIRCLE ( 'NONE', #41, 0.2755905511811023723 ) ;
#122 =( NAMED_UNIT ( * ) PLANE_ANGLE_UNIT ( ) SI_UNIT ( $, .RADIAN. ) );
#123 = APPLICATION_PROTOCOL_DEFINITION ( 'draft international standard', 'automotive_design', 1998, #49 ) ;
#124 = DIRECTION ( 'NONE',  ( 1.000000000000000000, 0.000000000000000000, 0.000000000000000000 ) ) ;
#125 = CYLINDRICAL_SURFACE ( 'NONE', #19, 0.2755905511811023723 ) ;
#126 = ORIENTED_EDGE ( 'NONE', *, *, #61, .F. ) ;
#127 = ADVANCED_FACE ( 'NONE', ( #94, #9 ), #6, .T. ) ;
#128 = DIRECTION ( 'NONE',  ( -0.000000000000000000, -1.000000000000000000, -0.000000000000000000 ) ) ;
#129 = DIRECTION ( 'NONE',  ( 0.000000000000000000, 0.000000000000000000, 1.000000000000000000 ) ) ;
#130 = CARTESIAN_POINT ( 'NONE',  ( 0.000000000000000000, 5.885826771653543510, 0.2755905511811023723 ) ) ;
#131 = PRODUCT_RELATED_PRODUCT_CATEGORY ( 'part', '', ( #98 ) ) ;
ENDSEC;
END-ISO-10303-21;
