ISO-10303-21;
HEADER;
FILE_DESCRIPTION (( 'STEP AP214' ),
    '1' );
FILE_NAME ('E21228.STEP',
    '2024-01-10T11:12:47',
    ( '' ),
    ( '' ),
    'SwSTEP 2.0',
    'SolidWorks 2023',
    '' );
FILE_SCHEMA (( 'AUTOMOTIVE_DESIGN' ));
ENDSEC;

DATA;
#1 = AXIS2_PLACEMENT_3D ( 'NONE', #92, #121, #39 ) ;
#2 = ORIENTED_EDGE ( 'NONE', *, *, #102, .T. ) ;
#3 = PRODUCT_DEFINITION ( 'UNKNOWN', '', #25, #42 ) ;
#4 = FACE_OUTER_BOUND ( 'NONE', #86, .T. ) ;
#5 = CIRCLE ( 'NONE', #8, 0.2559055118110227789 ) ;
#6 =( CONVERSION_BASED_UNIT ( 'INCH', #29 ) LENGTH_UNIT ( ) NAMED_UNIT ( #81 ) );
#7 = PRODUCT_DEFINITION_SHAPE ( 'NONE', 'NONE',  #3 ) ;
#8 = AXIS2_PLACEMENT_3D ( 'NONE', #79, #122, #24 ) ;
#9 = EDGE_LOOP ( 'NONE', ( #36 ) ) ;
#10 = DIRECTION ( 'NONE',  ( -0.000000000000000000, 1.000000000000000000, -0.000000000000000000 ) ) ;
#11 = EDGE_LOOP ( 'NONE', ( #108 ) ) ;
#12 = ADVANCED_FACE ( 'NONE', ( #45, #118 ), #131, .T. ) ;
#13 = FACE_OUTER_BOUND ( 'NONE', #87, .T. ) ;
#14 = DIRECTION ( 'NONE',  ( 0.000000000000000000, 0.000000000000000000, 1.000000000000000000 ) ) ;
#15 = CARTESIAN_POINT ( 'NONE',  ( 0.000000000000000000, 3.937007874015748143, 0.000000000000000000 ) ) ;
#16 = PRESENTATION_LAYER_ASSIGNMENT (  '', '', ( #55 ) ) ;
#17 = DIRECTION ( 'NONE',  ( -0.000000000000000000, -1.000000000000000000, -0.000000000000000000 ) ) ;
#18 = DIRECTION ( 'NONE',  ( 0.000000000000000000, 0.000000000000000000, 1.000000000000000000 ) ) ;
#19 = AXIS2_PLACEMENT_3D ( 'NONE', #109, #115, #100 ) ;
#20 = APPLICATION_PROTOCOL_DEFINITION ( 'draft international standard', 'automotive_design', 1998, #51 ) ;
#21 = AXIS2_PLACEMENT_3D ( 'NONE', #49, #17, #112 ) ;
#22 = DIRECTION ( 'NONE',  ( -0.000000000000000000, 1.000000000000000000, -0.000000000000000000 ) ) ;
#23 = EDGE_CURVE ( 'NONE', #78, #78, #93, .T. ) ;
#24 = DIRECTION ( 'NONE',  ( 0.000000000000000000, 0.000000000000000000, 1.000000000000000000 ) ) ;
#25 = PRODUCT_DEFINITION_FORMATION_WITH_SPECIFIED_SOURCE ( 'ANY', '', #103, .NOT_KNOWN. ) ;
#26 = CARTESIAN_POINT ( 'NONE',  ( 0.000000000000000000, -3.937007874015748143, 0.2559055118110249438 ) ) ;
#27 = MANIFOLD_SOLID_BREP ( 'Chamfer1', #63 ) ;
#28 = DIRECTION ( 'NONE',  ( 0.000000000000000000, 1.000000000000000000, 0.000000000000000000 ) ) ;
#29 = LENGTH_MEASURE_WITH_UNIT ( LENGTH_MEASURE( 0.02539999999999999897 ), #68 );
#30 = DIMENSIONAL_EXPONENTS ( 1.000000000000000000, 0.000000000000000000, 0.000000000000000000, 0.000000000000000000, 0.000000000000000000, 0.000000000000000000, 0.000000000000000000 ) ;
#31 = EDGE_CURVE ( 'NONE', #40, #40, #57, .T. ) ;
#32 = PRODUCT_CONTEXT ( 'NONE', #106, 'mechanical' ) ;
#33 = ADVANCED_BREP_SHAPE_REPRESENTATION ( 'E21228', ( #27, #99 ), #95 ) ;
#34 = PRESENTATION_STYLE_ASSIGNMENT (( #35 ) ) ;
#35 = SURFACE_STYLE_USAGE ( .BOTH. , #117 ) ;
#36 = ORIENTED_EDGE ( 'NONE', *, *, #77, .T. ) ;
#37 = DIRECTION ( 'NONE',  ( 0.000000000000000000, 0.000000000000000000, 1.000000000000000000 ) ) ;
#38 = FACE_OUTER_BOUND ( 'NONE', #9, .T. ) ;
#39 = DIRECTION ( 'NONE',  ( 0.000000000000000000, -0.000000000000000000, 1.000000000000000000 ) ) ;
#40 = VERTEX_POINT ( 'NONE', #26 ) ;
#41 = MECHANICAL_DESIGN_GEOMETRIC_PRESENTATION_REPRESENTATION (  '', ( #55 ), #82 ) ;
#42 = PRODUCT_DEFINITION_CONTEXT ( 'detailed design', #51, 'design' ) ;
#43 = COLOUR_RGB ( '',0.7921568627450980005, 0.8196078431372548767, 0.9333333333333333481 ) ;
#44 = DIRECTION ( 'NONE',  ( 1.000000000000000000, 0.000000000000000000, 0.000000000000000000 ) ) ;
#45 = FACE_BOUND ( 'NONE', #76, .T. ) ;
#46 = EDGE_LOOP ( 'NONE', ( #52 ) ) ;
#47 = EDGE_LOOP ( 'NONE', ( #66 ) ) ;
#48 = DIRECTION ( 'NONE',  ( 0.000000000000000000, -0.000000000000000000, 1.000000000000000000 ) ) ;
#49 = CARTESIAN_POINT ( 'NONE',  ( 0.000000000000000000, 3.937007874015748143, 0.000000000000000000 ) ) ;
#50 = ADVANCED_FACE ( 'NONE', ( #13, #4 ), #60, .T. ) ;
#51 = APPLICATION_CONTEXT ( 'automotive_design' ) ;
#52 = ORIENTED_EDGE ( 'NONE', *, *, #102, .F. ) ;
#53 = ORIENTED_EDGE ( 'NONE', *, *, #77, .F. ) ;
#54 = DIRECTION ( 'NONE',  ( 0.000000000000000000, 0.000000000000000000, 1.000000000000000000 ) ) ;
#55 = STYLED_ITEM ( 'NONE', ( #34 ), #27 ) ;
#56 = FILL_AREA_STYLE ('',( #107 ) ) ;
#57 = CIRCLE ( 'NONE', #67, 0.2559055118110249438 ) ;
#58 = PLANE ( 'NONE',  #110 ) ;
#59 = FACE_OUTER_BOUND ( 'NONE', #47, .T. ) ;
#60 = CYLINDRICAL_SURFACE ( 'NONE', #21, 0.2755905511811023723 ) ;
#61 = FACE_BOUND ( 'NONE', #130, .T. ) ;
#62 = DIRECTION ( 'NONE',  ( 0.000000000000000000, 0.000000000000000000, -1.000000000000000000 ) ) ;
#63 = CLOSED_SHELL ( 'NONE', ( #50, #113, #75, #12, #127 ) ) ;
#64 = CARTESIAN_POINT ( 'NONE',  ( 0.000000000000000000, 0.000000000000000000, 0.000000000000000000 ) ) ;
#65 = CARTESIAN_POINT ( 'NONE',  ( 0.000000000000000000, -3.917322834645670770, 0.000000000000000000 ) ) ;
#66 = ORIENTED_EDGE ( 'NONE', *, *, #31, .T. ) ;
#67 = AXIS2_PLACEMENT_3D ( 'NONE', #129, #90, #14 ) ;
#68 =( LENGTH_UNIT ( ) NAMED_UNIT ( * ) SI_UNIT ( $, .METRE. ) );
#69 =( NAMED_UNIT ( * ) PLANE_ANGLE_UNIT ( ) SI_UNIT ( $, .RADIAN. ) );
#70 = VERTEX_POINT ( 'NONE', #98 ) ;
#71 = CARTESIAN_POINT ( 'NONE',  ( 0.000000000000000000, 3.937007874015748143, 0.2559055118110227789 ) ) ;
#72 = LENGTH_MEASURE_WITH_UNIT ( LENGTH_MEASURE( 0.02539999999999999897 ), #116 );
#73 = APPLICATION_PROTOCOL_DEFINITION ( 'draft international standard', 'automotive_design', 1998, #106 ) ;
#74 = UNCERTAINTY_MEASURE_WITH_UNIT (LENGTH_MEASURE( 1.000000000000000082E-05 ), #6, 'distance_accuracy_value', 'NONE');
#75 = ADVANCED_FACE ( 'NONE', ( #59 ), #114, .F. ) ;
#76 = EDGE_LOOP ( 'NONE', ( #119 ) ) ;
#77 = EDGE_CURVE ( 'NONE', #91, #91, #5, .T. ) ;
#78 = VERTEX_POINT ( 'NONE', #101 ) ;
#79 = CARTESIAN_POINT ( 'NONE',  ( 0.000000000000000000, 3.937007874015748143, 0.000000000000000000 ) ) ;
#80 = AXIS2_PLACEMENT_3D ( 'NONE', #88, #22, #54 ) ;
#81 = DIMENSIONAL_EXPONENTS ( 1.000000000000000000, 0.000000000000000000, 0.000000000000000000, 0.000000000000000000, 0.000000000000000000, 0.000000000000000000, 0.000000000000000000 ) ;
#82 =( GEOMETRIC_REPRESENTATION_CONTEXT ( 3 ) GLOBAL_UNCERTAINTY_ASSIGNED_CONTEXT ( ( #74 ) ) GLOBAL_UNIT_ASSIGNED_CONTEXT ( ( #6, #69, #97 ) ) REPRESENTATION_CONTEXT ( 'NONE', 'WORKASPACE' ) );
#83 = SHAPE_DEFINITION_REPRESENTATION ( #7, #33 ) ;
#84 = PRODUCT_RELATED_PRODUCT_CATEGORY ( 'part', '', ( #103 ) ) ;
#85 = SURFACE_STYLE_FILL_AREA ( #56 ) ;
#86 = EDGE_LOOP ( 'NONE', ( #2 ) ) ;
#87 = EDGE_LOOP ( 'NONE', ( #94 ) ) ;
#88 = CARTESIAN_POINT ( 'NONE',  ( 0.000000000000000000, -3.917322834645670770, 0.000000000000000000 ) ) ;
#89 = FACE_OUTER_BOUND ( 'NONE', #46, .T. ) ;
#90 = DIRECTION ( 'NONE',  ( -0.000000000000000000, -1.000000000000000000, -0.000000000000000000 ) ) ;
#91 = VERTEX_POINT ( 'NONE', #71 ) ;
#92 = CARTESIAN_POINT ( 'NONE',  ( 0.000000000000000000, -3.937007874015748143, 0.000000000000000000 ) ) ;
#93 = CIRCLE ( 'NONE', #104, 0.2755905511811023723 ) ;
#94 = ORIENTED_EDGE ( 'NONE', *, *, #23, .T. ) ;
#95 =( GEOMETRIC_REPRESENTATION_CONTEXT ( 3 ) GLOBAL_UNCERTAINTY_ASSIGNED_CONTEXT ( ( #126 ) ) GLOBAL_UNIT_ASSIGNED_CONTEXT ( ( #111, #124, #125 ) ) REPRESENTATION_CONTEXT ( 'NONE', 'WORKASPACE' ) );
#96 = CARTESIAN_POINT ( 'NONE',  ( 0.000000000000000000, 3.937007874015748143, 0.000000000000000000 ) ) ;
#97 =( NAMED_UNIT ( * ) SI_UNIT ( $, .STERADIAN. ) SOLID_ANGLE_UNIT ( ) );
#98 = CARTESIAN_POINT ( 'NONE',  ( 0.000000000000000000, 3.917322834645669438, 0.2755905511811023723 ) ) ;
#99 = AXIS2_PLACEMENT_3D ( 'NONE', #64, #18, #44 ) ;
#100 = DIRECTION ( 'NONE',  ( 0.000000000000000000, 0.000000000000000000, 1.000000000000000000 ) ) ;
#101 = CARTESIAN_POINT ( 'NONE',  ( 0.000000000000000000, -3.917322834645670770, 0.2755905511811023723 ) ) ;
#102 = EDGE_CURVE ( 'NONE', #70, #70, #128, .T. ) ;
#103 = PRODUCT ( 'E21228', 'E21228', '', ( #32 ) ) ;
#104 = AXIS2_PLACEMENT_3D ( 'NONE', #65, #10, #37 ) ;
#105 = AXIS2_PLACEMENT_3D ( 'NONE', #15, #120, #62 ) ;
#106 = APPLICATION_CONTEXT ( 'automotive_design' ) ;
#107 = FILL_AREA_STYLE_COLOUR ( '', #43 ) ;
#108 = ORIENTED_EDGE ( 'NONE', *, *, #23, .F. ) ;
#109 = CARTESIAN_POINT ( 'NONE',  ( 0.000000000000000000, 3.917322834645669438, 0.000000000000000000 ) ) ;
#110 = AXIS2_PLACEMENT_3D ( 'NONE', #96, #28, #48 ) ;
#111 =( CONVERSION_BASED_UNIT ( 'INCH', #72 ) LENGTH_UNIT ( ) NAMED_UNIT ( #30 ) );
#112 = DIRECTION ( 'NONE',  ( 0.000000000000000000, 0.000000000000000000, -1.000000000000000000 ) ) ;
#113 = ADVANCED_FACE ( 'NONE', ( #38 ), #58, .T. ) ;
#114 = PLANE ( 'NONE',  #1 ) ;
#115 = DIRECTION ( 'NONE',  ( 0.000000000000000000, -1.000000000000000000, 0.000000000000000000 ) ) ;
#116 =( LENGTH_UNIT ( ) NAMED_UNIT ( * ) SI_UNIT ( $, .METRE. ) );
#117 = SURFACE_SIDE_STYLE ('',( #85 ) ) ;
#118 = FACE_OUTER_BOUND ( 'NONE', #11, .T. ) ;
#119 = ORIENTED_EDGE ( 'NONE', *, *, #31, .F. ) ;
#120 = DIRECTION ( 'NONE',  ( 0.000000000000000000, -1.000000000000000000, 0.000000000000000000 ) ) ;
#121 = DIRECTION ( 'NONE',  ( 0.000000000000000000, 1.000000000000000000, 0.000000000000000000 ) ) ;
#122 = DIRECTION ( 'NONE',  ( 0.000000000000000000, 1.000000000000000000, 0.000000000000000000 ) ) ;
#123 = CONICAL_SURFACE ( 'NONE', #105, 0.2559055118110227789, 0.7853981633974699283 ) ;
#124 =( NAMED_UNIT ( * ) PLANE_ANGLE_UNIT ( ) SI_UNIT ( $, .RADIAN. ) );
#125 =( NAMED_UNIT ( * ) SI_UNIT ( $, .STERADIAN. ) SOLID_ANGLE_UNIT ( ) );
#126 = UNCERTAINTY_MEASURE_WITH_UNIT (LENGTH_MEASURE( 1.000000000000000082E-05 ), #111, 'distance_accuracy_value', 'NONE');
#127 = ADVANCED_FACE ( 'NONE', ( #89, #61 ), #123, .T. ) ;
#128 = CIRCLE ( 'NONE', #19, 0.2755905511811023723 ) ;
#129 = CARTESIAN_POINT ( 'NONE',  ( 0.000000000000000000, -3.937007874015748143, 0.000000000000000000 ) ) ;
#130 = EDGE_LOOP ( 'NONE', ( #53 ) ) ;
#131 = CONICAL_SURFACE ( 'NONE', #80, 0.2755905511811023723, 0.7853981633974422838 ) ;
ENDSEC;
END-ISO-10303-21;
