ISO-10303-21;
HEADER;
FILE_DESCRIPTION (( 'STEP AP203' ),
    '1' );
FILE_NAME ('BPA-S-0030C.step',
    '2021-11-30T13:55:07',
    ( '' ),
    ( '' ),
    'SwSTEP 2.0',
    'SolidWorks 2021',
    '' );
FILE_SCHEMA (( 'CONFIG_CONTROL_DESIGN' ));
ENDSEC;

DATA;
#1 = ORIENTED_EDGE ( 'NONE', *, *, #76, .F. ) ;
#2 = VECTOR ( 'NONE', #247, 1000.000000000000000 ) ;
#3 = CARTESIAN_POINT ( 'NONE',  ( 23.00000000000000000, 0.000000000000000000, 23.00000000000000000 ) ) ;
#4 = DIRECTION ( 'NONE',  ( 0.9961946980917455452, -0.08715574274765804097, 0.000000000000000000 ) ) ;
#5 = CARTESIAN_POINT ( 'NONE',  ( -21.83414513715450056, -4.895729756991079817, 21.83414513715450056 ) ) ;
#6 = DESIGN_CONTEXT ( 'detailed design', #155, 'design' ) ;
#7 = PLANE ( 'NONE',  #118 ) ;
#8 = LINE ( 'NONE', #275, #136 ) ;
#9 = DIRECTION ( 'NONE',  ( 0.000000000000000000, -0.08715574274765804097, 0.9961946980917455452 ) ) ;
#10 = LINE ( 'NONE', #303, #235 ) ;
#11 = VECTOR ( 'NONE', #142, 1000.000000000000000 ) ;
#12 = CC_DESIGN_DATE_AND_TIME_ASSIGNMENT ( #173, #335, ( #337 ) ) ;
#13 = FACE_BOUND ( 'NONE', #32, .T. ) ;
#14 = PERSON_AND_ORGANIZATION ( #23, #80 ) ;
#15 = LINE ( 'NONE', #135, #48 ) ;
#16 = CALENDAR_DATE ( 2021, 30, 11 ) ;
#17 = AXIS2_PLACEMENT_3D ( 'NONE', #165, #196, #73 ) ;
#18 = VECTOR ( 'NONE', #314, 1000.000000000000000 ) ;
#19 = EDGE_CURVE ( 'NONE', #283, #344, #378, .T. ) ;
#20 = APPROVAL_DATE_TIME ( #47, #175 ) ;
#21 = EDGE_CURVE ( 'NONE', #292, #338, #350, .T. ) ;
#22 = APPROVAL_STATUS ( 'not_yet_approved' ) ;
#23 = PERSON ( 'UNSPECIFIED', 'UNSPECIFIED', 'UNSPECIFIED', ('UNSPECIFIED'), ('UNSPECIFIED'), ('UNSPECIFIED') ) ;
#24 = ORIENTED_EDGE ( 'NONE', *, *, #346, .F. ) ;
#25 = ORIENTED_EDGE ( 'NONE', *, *, #310, .T. ) ;
#26 = LINE ( 'NONE', #178, #148 ) ;
#27 = ORIENTED_EDGE ( 'NONE', *, *, #163, .F. ) ;
#28 = EDGE_LOOP ( 'NONE', ( #115, #287, #317, #228 ) ) ;
#29 = DIRECTION ( 'NONE',  ( 0.000000000000000000, -1.000000000000000000, 0.000000000000000000 ) ) ;
#30 = CC_DESIGN_PERSON_AND_ORGANIZATION_ASSIGNMENT ( #14, #281, ( #218 ) ) ;
#31 = VECTOR ( 'NONE', #90, 1000.000000000000000 ) ;
#32 = EDGE_LOOP ( 'NONE', ( #99, #345, #25, #151 ) ) ;
#33 = PLANE ( 'NONE',  #56 ) ;
#34 = ADVANCED_FACE ( 'NONE', ( #205 ), #62, .T. ) ;
#35 = LINE ( 'NONE', #356, #323 ) ;
#36 = CARTESIAN_POINT ( 'NONE',  ( 23.00000000000000000, -3.000000000000000000, 23.00000000000000000 ) ) ;
#37 = PLANE ( 'NONE',  #351 ) ;
#38 = EDGE_CURVE ( 'NONE', #271, #283, #35, .T. ) ;
#39 = DIRECTION ( 'NONE',  ( 0.000000000000000000, 0.000000000000000000, -1.000000000000000000 ) ) ;
#40 = DIRECTION ( 'NONE',  ( -1.000000000000000000, 0.000000000000000000, 0.000000000000000000 ) ) ;
#41 = DIRECTION ( 'NONE',  ( 0.000000000000000000, 0.000000000000000000, 1.000000000000000000 ) ) ;
#42 = CARTESIAN_POINT ( 'NONE',  ( -23.00000000000000000, 0.000000000000000000, -23.00000000000000000 ) ) ;
#43 = CARTESIAN_POINT ( 'NONE',  ( 21.83414513715450056, -4.895729756991079817, 21.83414513715450056 ) ) ;
#44 = COORDINATED_UNIVERSAL_TIME_OFFSET ( 5, 0, .BEHIND. ) ;
#45 = APPROVAL_DATE_TIME ( #365, #349 ) ;
#46 = EDGE_CURVE ( 'NONE', #91, #204, #269, .T. ) ;
#47 = DATE_AND_TIME ( #307, #268 ) ;
#48 = VECTOR ( 'NONE', #41, 1000.000000000000000 ) ;
#49 = VECTOR ( 'NONE', #321, 1000.000000000000000 ) ;
#50 = COORDINATED_UNIVERSAL_TIME_OFFSET ( 5, 0, .BEHIND. ) ;
#51 = ORIENTED_EDGE ( 'NONE', *, *, #104, .F. ) ;
#52 = COORDINATED_UNIVERSAL_TIME_OFFSET ( 5, 0, .BEHIND. ) ;
#53 = ADVANCED_BREP_SHAPE_REPRESENTATION ( 'BPA-S-0030C', ( #340, #110 ), #359 ) ;
#54 = CARTESIAN_POINT ( 'NONE',  ( 23.00000000000000000, 0.000000000000000000, -23.00000000000000000 ) ) ;
#55 = LINE ( 'NONE', #333, #2 ) ;
#56 = AXIS2_PLACEMENT_3D ( 'NONE', #267, #361, #234 ) ;
#57 = VERTEX_POINT ( 'NONE', #322 ) ;
#58 = FACE_OUTER_BOUND ( 'NONE', #149, .T. ) ;
#59 = ADVANCED_FACE ( 'NONE', ( #67 ), #7, .T. ) ;
#60 = LOCAL_TIME ( 8, 55, 7.000000000000000000, #250 ) ;
#61 = ORIENTED_EDGE ( 'NONE', *, *, #263, .T. ) ;
#62 = PLANE ( 'NONE',  #147 ) ;
#63 = CARTESIAN_POINT ( 'NONE',  ( 20.99388036945190095, -14.50000000000000000, -20.99388036945190095 ) ) ;
#64 = ORIENTED_EDGE ( 'NONE', *, *, #138, .F. ) ;
#65 = PRODUCT ( 'BPA-S-0030C', 'BPA-S-0030C', '', ( #368 ) ) ;
#66 = AXIS2_PLACEMENT_3D ( 'NONE', #276, #366, #330 ) ;
#67 = FACE_OUTER_BOUND ( 'NONE', #28, .T. ) ;
#68 = DIRECTION ( 'NONE',  ( 0.000000000000000000, 0.000000000000000000, -1.000000000000000000 ) ) ;
#69 = DIRECTION ( 'NONE',  ( 0.000000000000000000, 1.000000000000000000, 0.000000000000000000 ) ) ;
#70 = CARTESIAN_POINT ( 'NONE',  ( 22.00000000000000000, -3.000000000000000000, 11.00000000000000000 ) ) ;
#71 = PRODUCT_DEFINITION_SHAPE ( 'NONE', 'NONE',  #230 ) ;
#72 = UNCERTAINTY_MEASURE_WITH_UNIT (LENGTH_MEASURE( 1.000000000000000082E-05 ), #238, 'distance_accuracy_value', 'NONE');
#73 = DIRECTION ( 'NONE',  ( 0.000000000000000000, -0.9961946980917455452, 0.08715574274765804097 ) ) ;
#74 = DIRECTION ( 'NONE',  ( 0.000000000000000000, -1.000000000000000000, 0.000000000000000000 ) ) ;
#75 = PLANE ( 'NONE',  #279 ) ;
#76 = EDGE_CURVE ( 'NONE', #260, #297, #189, .T. ) ;
#77 = DATE_AND_TIME ( #16, #102 ) ;
#78 = APPROVAL_DATE_TIME ( #83, #200 ) ;
#79 = PERSON_AND_ORGANIZATION_ROLE ( 'creator' ) ;
#80 = ORGANIZATION ( 'UNSPECIFIED', 'UNSPECIFIED', '' ) ;
#81 = EDGE_CURVE ( 'NONE', #57, #283, #84, .T. ) ;
#82 = ORIENTED_EDGE ( 'NONE', *, *, #221, .F. ) ;
#83 = DATE_AND_TIME ( #312, #229 ) ;
#84 = LINE ( 'NONE', #191, #212 ) ;
#85 = VERTEX_POINT ( 'NONE', #257 ) ;
#86 = ORIENTED_EDGE ( 'NONE', *, *, #354, .F. ) ;
#87 = ADVANCED_FACE ( 'NONE', ( #302 ), #105, .T. ) ;
#88 = DIRECTION ( 'NONE',  ( -0.08715574274765804097, 0.9961946980917455452, 0.000000000000000000 ) ) ;
#89 = ORIENTED_EDGE ( 'NONE', *, *, #138, .T. ) ;
#90 = DIRECTION ( 'NONE',  ( 0.000000000000000000, -1.000000000000000000, 0.000000000000000000 ) ) ;
#91 = VERTEX_POINT ( 'NONE', #360 ) ;
#92 = DIRECTION ( 'NONE',  ( 1.000000000000000000, 0.000000000000000000, 0.000000000000000000 ) ) ;
#93 = AXIS2_PLACEMENT_3D ( 'NONE', #179, #290, #92 ) ;
#94 = DIRECTION ( 'NONE',  ( 0.000000000000000000, -1.000000000000000000, 0.000000000000000000 ) ) ;
#95 = DIRECTION ( 'NONE',  ( 1.000000000000000000, 0.000000000000000000, 0.000000000000000000 ) ) ;
#96 = APPLICATION_CONTEXT ( 'configuration controlled 3d designs of mechanical parts and assemblies' ) ;
#97 = ORIENTED_EDGE ( 'NONE', *, *, #38, .F. ) ;
#98 = CARTESIAN_POINT ( 'NONE',  ( 23.00000000000000000, 0.000000000000000000, 23.00000000000000000 ) ) ;
#99 = ORIENTED_EDGE ( 'NONE', *, *, #362, .T. ) ;
#100 = CARTESIAN_POINT ( 'NONE',  ( 22.00000000000000000, -3.000000000000000000, 22.00000000000000000 ) ) ;
#101 = CARTESIAN_POINT ( 'NONE',  ( 23.00000000000000000, 0.000000000000000000, -23.00000000000000000 ) ) ;
#102 = LOCAL_TIME ( 8, 55, 7.000000000000000000, #50 ) ;
#103 = DIRECTION ( 'NONE',  ( 0.000000000000000000, 0.000000000000000000, 1.000000000000000000 ) ) ;
#104 = EDGE_CURVE ( 'NONE', #91, #258, #55, .T. ) ;
#105 = PLANE ( 'NONE',  #17 ) ;
#106 = DIRECTION ( 'NONE',  ( 1.000000000000000000, 0.000000000000000000, 0.000000000000000000 ) ) ;
#107 = CARTESIAN_POINT ( 'NONE',  ( -23.00000000000000000, 0.000000000000000000, 23.00000000000000000 ) ) ;
#108 = EDGE_CURVE ( 'NONE', #344, #204, #15, .T. ) ;
#109 = LINE ( 'NONE', #107, #227 ) ;
#110 = AXIS2_PLACEMENT_3D ( 'NONE', #248, #111, #222 ) ;
#111 = DIRECTION ( 'NONE',  ( 0.000000000000000000, 0.000000000000000000, 1.000000000000000000 ) ) ;
#112 = PERSON_AND_ORGANIZATION ( #23, #80 ) ;
#113 = ORIENTED_EDGE ( 'NONE', *, *, #81, .F. ) ;
#114 = CC_DESIGN_SECURITY_CLASSIFICATION ( #337, ( #218 ) ) ;
#115 = ORIENTED_EDGE ( 'NONE', *, *, #159, .T. ) ;
#116 = ORIENTED_EDGE ( 'NONE', *, *, #81, .T. ) ;
#117 = ORIENTED_EDGE ( 'NONE', *, *, #108, .T. ) ;
#118 = AXIS2_PLACEMENT_3D ( 'NONE', #101, #326, #69 ) ;
#119 = CARTESIAN_POINT ( 'NONE',  ( -23.00000000000000000, -3.000000000000000000, -23.00000000000000000 ) ) ;
#120 = CARTESIAN_POINT ( 'NONE',  ( 22.00000000000000000, -14.50000000000000000, -20.99388036945190095 ) ) ;
#121 = EDGE_CURVE ( 'NONE', #258, #271, #133, .T. ) ;
#122 = ORIENTED_EDGE ( 'NONE', *, *, #221, .T. ) ;
#123 = LINE ( 'NONE', #295, #244 ) ;
#124 = APPROVAL_PERSON_ORGANIZATION ( #308, #200, #306 ) ;
#125 = DIRECTION ( 'NONE',  ( 0.000000000000000000, 0.000000000000000000, 1.000000000000000000 ) ) ;
#126 = FACE_OUTER_BOUND ( 'NONE', #256, .T. ) ;
#127 = ORIENTED_EDGE ( 'NONE', *, *, #21, .T. ) ;
#128 = CARTESIAN_POINT ( 'NONE',  ( -20.99388036945190095, -14.50000000000000000, -20.99388036945190095 ) ) ;
#129 = DIRECTION ( 'NONE',  ( -1.000000000000000000, 0.000000000000000000, 0.000000000000000000 ) ) ;
#130 = APPROVAL_PERSON_ORGANIZATION ( #195, #175, #171 ) ;
#131 = CARTESIAN_POINT ( 'NONE',  ( 23.00000000000000000, -3.000000000000000000, -23.00000000000000000 ) ) ;
#132 = CALENDAR_DATE ( 2021, 30, 11 ) ;
#133 = LINE ( 'NONE', #43, #266 ) ;
#134 = SECURITY_CLASSIFICATION_LEVEL ( 'unclassified' ) ;
#135 = CARTESIAN_POINT ( 'NONE',  ( -20.99388036945190095, -14.50000000000000000, -22.00000000000000000 ) ) ;
#136 = VECTOR ( 'NONE', #95, 1000.000000000000000 ) ;
#137 = PERSON_AND_ORGANIZATION ( #23, #80 ) ;
#138 = EDGE_CURVE ( 'NONE', #260, #320, #109, .T. ) ;
#139 = PERSON_AND_ORGANIZATION_ROLE ( 'classification_officer' ) ;
#140 = EDGE_LOOP ( 'NONE', ( #373, #160, #207, #116 ) ) ;
#141 = ORIENTED_EDGE ( 'NONE', *, *, #288, .T. ) ;
#142 = DIRECTION ( 'NONE',  ( 1.000000000000000000, 0.000000000000000000, 0.000000000000000000 ) ) ;
#143 = ADVANCED_FACE ( 'NONE', ( #13, #216 ), #167, .T. ) ;
#144 = ORIENTED_EDGE ( 'NONE', *, *, #362, .F. ) ;
#145 = ORIENTED_EDGE ( 'NONE', *, *, #121, .T. ) ;
#146 = CARTESIAN_POINT ( 'NONE',  ( 23.00000000000000000, 0.000000000000000000, 23.00000000000000000 ) ) ;
#147 = AXIS2_PLACEMENT_3D ( 'NONE', #3, #125, #237 ) ;
#148 = VECTOR ( 'NONE', #29, 1000.000000000000000 ) ;
#149 = EDGE_LOOP ( 'NONE', ( #97, #241, #352, #213 ) ) ;
#150 = ADVANCED_FACE ( 'NONE', ( #273 ), #75, .T. ) ;
#151 = ORIENTED_EDGE ( 'NONE', *, *, #104, .T. ) ;
#152 = ADVANCED_FACE ( 'NONE', ( #245 ), #193, .T. ) ;
#153 = ORIENTED_EDGE ( 'NONE', *, *, #38, .T. ) ;
#154 = FACE_OUTER_BOUND ( 'NONE', #177, .T. ) ;
#155 = APPLICATION_CONTEXT ( 'configuration controlled 3d designs of mechanical parts and assemblies' ) ;
#156 = CC_DESIGN_APPROVAL ( #175, ( #218 ) ) ;
#157 = ORIENTED_EDGE ( 'NONE', *, *, #121, .F. ) ;
#158 = LINE ( 'NONE', #98, #375 ) ;
#159 = EDGE_CURVE ( 'NONE', #292, #199, #342, .T. ) ;
#160 = ORIENTED_EDGE ( 'NONE', *, *, #224, .F. ) ;
#161 = CARTESIAN_POINT ( 'NONE',  ( -22.00000000000000000, -14.50000000000000000, 20.99388036945190095 ) ) ;
#162 = VERTEX_POINT ( 'NONE', #286 ) ;
#163 = EDGE_CURVE ( 'NONE', #199, #162, #26, .T. ) ;
#164 = CARTESIAN_POINT ( 'NONE',  ( -23.00000000000000000, -3.000000000000000000, 23.00000000000000000 ) ) ;
#165 = CARTESIAN_POINT ( 'NONE',  ( 22.00000000000000000, -3.000000000000000000, -22.00000000000000000 ) ) ;
#166 = CARTESIAN_POINT ( 'NONE',  ( -22.00000000000000000, -3.000000000000000000, -22.00000000000000000 ) ) ;
#167 = PLANE ( 'NONE',  #66 ) ;
#168 = DATE_TIME_ROLE ( 'creation_date' ) ;
#169 = SHAPE_DEFINITION_REPRESENTATION ( #71, #53 ) ;
#170 = EDGE_CURVE ( 'NONE', #85, #338, #289, .T. ) ;
#171 = APPROVAL_ROLE ( '' ) ;
#172 = ORIENTED_EDGE ( 'NONE', *, *, #170, .F. ) ;
#173 = DATE_AND_TIME ( #223, #180 ) ;
#174 = VECTOR ( 'NONE', #94, 1000.000000000000000 ) ;
#175 = APPROVAL ( #198, 'UNSPECIFIED' ) ;
#176 = CC_DESIGN_APPROVAL ( #200, ( #230 ) ) ;
#177 = EDGE_LOOP ( 'NONE', ( #239, #122, #181, #64 ) ) ;
#178 = CARTESIAN_POINT ( 'NONE',  ( 23.00000000000000000, 0.000000000000000000, 23.00000000000000000 ) ) ;
#179 = CARTESIAN_POINT ( 'NONE',  ( 0.000000000000000000, -14.50000000000000000, 0.000000000000000000 ) ) ;
#180 = LOCAL_TIME ( 8, 55, 7.000000000000000000, #52 ) ;
#181 = ORIENTED_EDGE ( 'NONE', *, *, #370, .F. ) ;
#182 = ORIENTED_EDGE ( 'NONE', *, *, #370, .T. ) ;
#183 = LINE ( 'NONE', #70, #49 ) ;
#184 = CARTESIAN_POINT ( 'NONE',  ( 23.00000000000000000, 0.000000000000000000, -23.00000000000000000 ) ) ;
#185 = LINE ( 'NONE', #161, #285 ) ;
#186 = CLOSED_SHELL ( 'NONE', ( #343, #143, #367, #59, #34, #377, #251, #150, #152, #87, #328 ) ) ;
#187 = ORIENTED_EDGE ( 'NONE', *, *, #310, .F. ) ;
#188 = CARTESIAN_POINT ( 'NONE',  ( -23.00000000000000000, -3.000000000000000000, 23.00000000000000000 ) ) ;
#189 = LINE ( 'NONE', #300, #243 ) ;
#190 = CARTESIAN_POINT ( 'NONE',  ( -23.00000000000000000, 0.000000000000000000, 23.00000000000000000 ) ) ;
#191 = CARTESIAN_POINT ( 'NONE',  ( 21.83414513715450056, -4.895729756991079817, -21.83414513715450056 ) ) ;
#192 = DIRECTION ( 'NONE',  ( 0.000000000000000000, 0.000000000000000000, -1.000000000000000000 ) ) ;
#193 = PLANE ( 'NONE',  #280 ) ;
#194 = AXIS2_PLACEMENT_3D ( 'NONE', #209, #214, #272 ) ;
#195 = PERSON_AND_ORGANIZATION ( #23, #80 ) ;
#196 = DIRECTION ( 'NONE',  ( 0.000000000000000000, -0.08715574274765804097, -0.9961946980917455452 ) ) ;
#197 = PERSON_AND_ORGANIZATION ( #23, #80 ) ;
#198 = APPROVAL_STATUS ( 'not_yet_approved' ) ;
#199 = VERTEX_POINT ( 'NONE', #146 ) ;
#200 = APPROVAL ( #22, 'UNSPECIFIED' ) ;
#201 = VECTOR ( 'NONE', #103, 1000.000000000000000 ) ;
#202 = EDGE_LOOP ( 'NONE', ( #61, #127, #172, #82 ) ) ;
#203 = LINE ( 'NONE', #316, #332 ) ;
#204 = VERTEX_POINT ( 'NONE', #261 ) ;
#205 = FACE_OUTER_BOUND ( 'NONE', #233, .T. ) ;
#206 = LINE ( 'NONE', #188, #262 ) ;
#207 = ORIENTED_EDGE ( 'NONE', *, *, #372, .F. ) ;
#208 = CC_DESIGN_PERSON_AND_ORGANIZATION_ASSIGNMENT ( #137, #254, ( #218 ) ) ;
#209 = CARTESIAN_POINT ( 'NONE',  ( 0.000000000000000000, 0.000000000000000000, 0.000000000000000000 ) ) ;
#210 = ORIENTED_EDGE ( 'NONE', *, *, #354, .T. ) ;
#211 = FACE_OUTER_BOUND ( 'NONE', #202, .T. ) ;
#212 = VECTOR ( 'NONE', #313, 1000.000000000000114 ) ;
#213 = ORIENTED_EDGE ( 'NONE', *, *, #19, .F. ) ;
#214 = DIRECTION ( 'NONE',  ( -0.000000000000000000, 1.000000000000000000, 0.000000000000000000 ) ) ;
#215 = CARTESIAN_POINT ( 'NONE',  ( 20.99388036945190095, -14.50000000000000000, 20.99388036945190095 ) ) ;
#216 = FACE_OUTER_BOUND ( 'NONE', #374, .T. ) ;
#217 = VECTOR ( 'NONE', #265, 1000.000000000000000 ) ;
#218 = PRODUCT_DEFINITION_FORMATION_WITH_SPECIFIED_SOURCE ( 'ANY', '', #65, .NOT_KNOWN. ) ;
#219 =( NAMED_UNIT ( * ) PLANE_ANGLE_UNIT ( ) SI_UNIT ( $, .RADIAN. ) );
#220 = CARTESIAN_POINT ( 'NONE',  ( -22.00000000000000000, -3.000000000000000000, 22.00000000000000000 ) ) ;
#221 = EDGE_CURVE ( 'NONE', #297, #85, #259, .T. ) ;
#222 = DIRECTION ( 'NONE',  ( 1.000000000000000000, 0.000000000000000000, 0.000000000000000000 ) ) ;
#223 = CALENDAR_DATE ( 2021, 30, 11 ) ;
#224 = EDGE_CURVE ( 'NONE', #311, #344, #203, .T. ) ;
#225 = APPROVAL_PERSON_ORGANIZATION ( #309, #349, #255 ) ;
#226 = ORIENTED_EDGE ( 'NONE', *, *, #346, .T. ) ;
#227 = VECTOR ( 'NONE', #252, 1000.000000000000000 ) ;
#228 = ORIENTED_EDGE ( 'NONE', *, *, #21, .F. ) ;
#229 = LOCAL_TIME ( 8, 55, 7.000000000000000000, #331 ) ;
#230 = PRODUCT_DEFINITION ( 'UNKNOWN', '', #218, #6 ) ;
#231 = CARTESIAN_POINT ( 'NONE',  ( -23.00000000000000000, 0.000000000000000000, -23.00000000000000000 ) ) ;
#232 = ORIENTED_EDGE ( 'NONE', *, *, #159, .F. ) ;
#233 = EDGE_LOOP ( 'NONE', ( #210, #89, #24, #27 ) ) ;
#234 = DIRECTION ( 'NONE',  ( 0.000000000000000000, 0.000000000000000000, 1.000000000000000000 ) ) ;
#235 = VECTOR ( 'NONE', #246, 1000.000000000000000 ) ;
#236 = CC_DESIGN_DATE_AND_TIME_ASSIGNMENT ( #77, #168, ( #230 ) ) ;
#237 = DIRECTION ( 'NONE',  ( 1.000000000000000000, 0.000000000000000000, 0.000000000000000000 ) ) ;
#238 =( LENGTH_UNIT ( ) NAMED_UNIT ( * ) SI_UNIT ( .MILLI., .METRE. ) );
#239 = ORIENTED_EDGE ( 'NONE', *, *, #76, .T. ) ;
#240 = PLANE ( 'NONE',  #194 ) ;
#241 = ORIENTED_EDGE ( 'NONE', *, *, #305, .F. ) ;
#242 = CARTESIAN_POINT ( 'NONE',  ( 23.00000000000000000, -3.000000000000000000, -23.00000000000000000 ) ) ;
#243 = VECTOR ( 'NONE', #39, 1000.000000000000000 ) ;
#244 = VECTOR ( 'NONE', #293, 1000.000000000000000 ) ;
#245 = FACE_OUTER_BOUND ( 'NONE', #315, .T. ) ;
#246 = DIRECTION ( 'NONE',  ( -1.000000000000000000, 0.000000000000000000, 0.000000000000000000 ) ) ;
#247 = DIRECTION ( 'NONE',  ( 1.000000000000000000, 0.000000000000000000, 0.000000000000000000 ) ) ;
#248 = CARTESIAN_POINT ( 'NONE',  ( 0.000000000000000000, 0.000000000000000000, 0.000000000000000000 ) ) ;
#249 = DIRECTION ( 'NONE',  ( -0.9961946980917455452, -0.08715574274765804097, 0.000000000000000000 ) ) ;
#250 = COORDINATED_UNIVERSAL_TIME_OFFSET ( 5, 0, .BEHIND. ) ;
#251 = ADVANCED_FACE ( 'NONE', ( #58 ), #348, .F. ) ;
#252 = DIRECTION ( 'NONE',  ( 0.000000000000000000, -1.000000000000000000, 0.000000000000000000 ) ) ;
#253 = VECTOR ( 'NONE', #301, 1000.000000000000000 ) ;
#254 = PERSON_AND_ORGANIZATION_ROLE ( 'design_supplier' ) ;
#255 = APPROVAL_ROLE ( '' ) ;
#256 = EDGE_LOOP ( 'NONE', ( #153, #113, #144, #145 ) ) ;
#257 = CARTESIAN_POINT ( 'NONE',  ( -23.00000000000000000, -3.000000000000000000, -23.00000000000000000 ) ) ;
#258 = VERTEX_POINT ( 'NONE', #270 ) ;
#259 = LINE ( 'NONE', #231, #31 ) ;
#260 = VERTEX_POINT ( 'NONE', #190 ) ;
#261 = CARTESIAN_POINT ( 'NONE',  ( -20.99388036945190095, -14.50000000000000000, 20.99388036945190095 ) ) ;
#262 = VECTOR ( 'NONE', #192, 1000.000000000000000 ) ;
#263 = EDGE_CURVE ( 'NONE', #297, #292, #8, .T. ) ;
#264 = ORIENTED_EDGE ( 'NONE', *, *, #305, .T. ) ;
#265 = DIRECTION ( 'NONE',  ( -1.000000000000000000, 0.000000000000000000, 0.000000000000000000 ) ) ;
#266 = VECTOR ( 'NONE', #363, 1000.000000000000114 ) ;
#267 = CARTESIAN_POINT ( 'NONE',  ( -23.00000000000000000, 0.000000000000000000, 23.00000000000000000 ) ) ;
#268 = LOCAL_TIME ( 8, 55, 7.000000000000000000, #44 ) ;
#269 = LINE ( 'NONE', #5, #357 ) ;
#270 = CARTESIAN_POINT ( 'NONE',  ( 22.00000000000000000, -3.000000000000000000, 22.00000000000000000 ) ) ;
#271 = VERTEX_POINT ( 'NONE', #215 ) ;
#272 = DIRECTION ( 'NONE',  ( 1.000000000000000000, 0.000000000000000000, 0.000000000000000000 ) ) ;
#273 = FACE_OUTER_BOUND ( 'NONE', #341, .T. ) ;
#274 = CC_DESIGN_APPROVAL ( #349, ( #337 ) ) ;
#275 = CARTESIAN_POINT ( 'NONE',  ( -23.00000000000000000, 0.000000000000000000, -23.00000000000000000 ) ) ;
#276 = CARTESIAN_POINT ( 'NONE',  ( 0.000000000000000000, -3.000000000000000000, 0.000000000000000000 ) ) ;
#277 =( NAMED_UNIT ( * ) SI_UNIT ( $, .STERADIAN. ) SOLID_ANGLE_UNIT ( ) );
#278 = CC_DESIGN_PERSON_AND_ORGANIZATION_ASSIGNMENT ( #197, #79, ( #230 ) ) ;
#279 = AXIS2_PLACEMENT_3D ( 'NONE', #220, #9, #129 ) ;
#280 = AXIS2_PLACEMENT_3D ( 'NONE', #304, #249, #88 ) ;
#281 = PERSON_AND_ORGANIZATION_ROLE ( 'creator' ) ;
#282 = PERSON_AND_ORGANIZATION ( #23, #80 ) ;
#283 = VERTEX_POINT ( 'NONE', #63 ) ;
#284 = ORIENTED_EDGE ( 'NONE', *, *, #224, .T. ) ;
#285 = VECTOR ( 'NONE', #106, 1000.000000000000000 ) ;
#286 = CARTESIAN_POINT ( 'NONE',  ( 23.00000000000000000, -3.000000000000000000, 23.00000000000000000 ) ) ;
#287 = ORIENTED_EDGE ( 'NONE', *, *, #163, .T. ) ;
#288 = EDGE_CURVE ( 'NONE', #338, #162, #298, .T. ) ;
#289 = LINE ( 'NONE', #119, #11 ) ;
#290 = DIRECTION ( 'NONE',  ( -0.000000000000000000, 1.000000000000000000, 0.000000000000000000 ) ) ;
#291 = ORIENTED_EDGE ( 'NONE', *, *, #170, .T. ) ;
#292 = VERTEX_POINT ( 'NONE', #355 ) ;
#293 = DIRECTION ( 'NONE',  ( 0.000000000000000000, 0.000000000000000000, 1.000000000000000000 ) ) ;
#294 = ORIENTED_EDGE ( 'NONE', *, *, #46, .F. ) ;
#295 = CARTESIAN_POINT ( 'NONE',  ( -22.00000000000000000, -3.000000000000000000, -11.00000000000000000 ) ) ;
#296 = AXIS2_PLACEMENT_3D ( 'NONE', #319, #68, #74 ) ;
#297 = VERTEX_POINT ( 'NONE', #42 ) ;
#298 = LINE ( 'NONE', #242, #201 ) ;
#299 = CC_DESIGN_PERSON_AND_ORGANIZATION_ASSIGNMENT ( #282, #364, ( #65 ) ) ;
#300 = CARTESIAN_POINT ( 'NONE',  ( -23.00000000000000000, 0.000000000000000000, 23.00000000000000000 ) ) ;
#301 = DIRECTION ( 'NONE',  ( -1.000000000000000000, 0.000000000000000000, 0.000000000000000000 ) ) ;
#302 = FACE_OUTER_BOUND ( 'NONE', #140, .T. ) ;
#303 = CARTESIAN_POINT ( 'NONE',  ( 11.00000000000000000, -3.000000000000000000, -22.00000000000000000 ) ) ;
#304 = CARTESIAN_POINT ( 'NONE',  ( -22.00000000000000000, -3.000000000000000000, -22.00000000000000000 ) ) ;
#305 = EDGE_CURVE ( 'NONE', #204, #271, #185, .T. ) ;
#306 = APPROVAL_ROLE ( '' ) ;
#307 = CALENDAR_DATE ( 2021, 30, 11 ) ;
#308 = PERSON_AND_ORGANIZATION ( #23, #80 ) ;
#309 = PERSON_AND_ORGANIZATION ( #23, #80 ) ;
#310 = EDGE_CURVE ( 'NONE', #311, #91, #123, .T. ) ;
#311 = VERTEX_POINT ( 'NONE', #166 ) ;
#312 = CALENDAR_DATE ( 2021, 30, 11 ) ;
#313 = DIRECTION ( 'NONE',  ( -0.08682659386424759762, -0.9924325091389669673, 0.08682659386424759762 ) ) ;
#314 = DIRECTION ( 'NONE',  ( 0.000000000000000000, 0.000000000000000000, 1.000000000000000000 ) ) ;
#315 = EDGE_LOOP ( 'NONE', ( #117, #294, #187, #284 ) ) ;
#316 = CARTESIAN_POINT ( 'NONE',  ( -21.83414513715450056, -4.895729756991079817, -21.83414513715450056 ) ) ;
#317 = ORIENTED_EDGE ( 'NONE', *, *, #288, .F. ) ;
#318 = ORIENTED_EDGE ( 'NONE', *, *, #263, .F. ) ;
#319 = CARTESIAN_POINT ( 'NONE',  ( -23.00000000000000000, 0.000000000000000000, -23.00000000000000000 ) ) ;
#320 = VERTEX_POINT ( 'NONE', #164 ) ;
#321 = DIRECTION ( 'NONE',  ( 0.000000000000000000, 0.000000000000000000, -1.000000000000000000 ) ) ;
#322 = CARTESIAN_POINT ( 'NONE',  ( 22.00000000000000000, -3.000000000000000000, -22.00000000000000000 ) ) ;
#323 = VECTOR ( 'NONE', #347, 1000.000000000000000 ) ;
#324 = PLANE ( 'NONE',  #296 ) ;
#325 = PRODUCT_RELATED_PRODUCT_CATEGORY ( 'detail', '', ( #65 ) ) ;
#326 = DIRECTION ( 'NONE',  ( 1.000000000000000000, 0.000000000000000000, 0.000000000000000000 ) ) ;
#327 = LINE ( 'NONE', #36, #253 ) ;
#328 = ADVANCED_FACE ( 'NONE', ( #126 ), #37, .T. ) ;
#329 = FACE_OUTER_BOUND ( 'NONE', #376, .T. ) ;
#330 = DIRECTION ( 'NONE',  ( 0.000000000000000000, 0.000000000000000000, -1.000000000000000000 ) ) ;
#331 = COORDINATED_UNIVERSAL_TIME_OFFSET ( 5, 0, .BEHIND. ) ;
#332 = VECTOR ( 'NONE', #379, 1000.000000000000114 ) ;
#333 = CARTESIAN_POINT ( 'NONE',  ( -11.00000000000000000, -3.000000000000000000, 22.00000000000000000 ) ) ;
#334 = APPLICATION_PROTOCOL_DEFINITION ( 'international standard', 'config_control_design', 1994, #155 ) ;
#335 = DATE_TIME_ROLE ( 'classification_date' ) ;
#336 = CC_DESIGN_PERSON_AND_ORGANIZATION_ASSIGNMENT ( #112, #139, ( #337 ) ) ;
#337 = SECURITY_CLASSIFICATION ( '', '', #134 ) ;
#338 = VERTEX_POINT ( 'NONE', #131 ) ;
#339 = APPLICATION_PROTOCOL_DEFINITION ( 'international standard', 'config_control_design', 1994, #96 ) ;
#340 = MANIFOLD_SOLID_BREP ( 'Imported1', #186 ) ;
#341 = EDGE_LOOP ( 'NONE', ( #264, #157, #51, #371 ) ) ;
#342 = LINE ( 'NONE', #54, #18 ) ;
#343 = ADVANCED_FACE ( 'NONE', ( #329 ), #240, .T. ) ;
#344 = VERTEX_POINT ( 'NONE', #128 ) ;
#345 = ORIENTED_EDGE ( 'NONE', *, *, #372, .T. ) ;
#346 = EDGE_CURVE ( 'NONE', #162, #320, #327, .T. ) ;
#347 = DIRECTION ( 'NONE',  ( 0.000000000000000000, 0.000000000000000000, -1.000000000000000000 ) ) ;
#348 = PLANE ( 'NONE',  #93 ) ;
#349 = APPROVAL ( #369, 'UNSPECIFIED' ) ;
#350 = LINE ( 'NONE', #184, #174 ) ;
#351 = AXIS2_PLACEMENT_3D ( 'NONE', #100, #4, #358 ) ;
#352 = ORIENTED_EDGE ( 'NONE', *, *, #108, .F. ) ;
#353 = DIRECTION ( 'NONE',  ( 0.08682659386424759762, -0.9924325091389669673, -0.08682659386424759762 ) ) ;
#354 = EDGE_CURVE ( 'NONE', #199, #260, #158, .T. ) ;
#355 = CARTESIAN_POINT ( 'NONE',  ( 23.00000000000000000, 0.000000000000000000, -23.00000000000000000 ) ) ;
#356 = CARTESIAN_POINT ( 'NONE',  ( 20.99388036945190095, -14.50000000000000000, 22.00000000000000000 ) ) ;
#357 = VECTOR ( 'NONE', #353, 1000.000000000000114 ) ;
#358 = DIRECTION ( 'NONE',  ( 0.000000000000000000, 0.000000000000000000, -1.000000000000000000 ) ) ;
#359 =( GEOMETRIC_REPRESENTATION_CONTEXT ( 3 ) GLOBAL_UNCERTAINTY_ASSIGNED_CONTEXT ( ( #72 ) ) GLOBAL_UNIT_ASSIGNED_CONTEXT ( ( #238, #219, #277 ) ) REPRESENTATION_CONTEXT ( 'NONE', 'WORKASPACE' ) );
#360 = CARTESIAN_POINT ( 'NONE',  ( -22.00000000000000000, -3.000000000000000000, 22.00000000000000000 ) ) ;
#361 = DIRECTION ( 'NONE',  ( -1.000000000000000000, 0.000000000000000000, 0.000000000000000000 ) ) ;
#362 = EDGE_CURVE ( 'NONE', #258, #57, #183, .T. ) ;
#363 = DIRECTION ( 'NONE',  ( -0.08682659386424759762, -0.9924325091389669673, -0.08682659386424759762 ) ) ;
#364 = PERSON_AND_ORGANIZATION_ROLE ( 'design_owner' ) ;
#365 = DATE_AND_TIME ( #132, #60 ) ;
#366 = DIRECTION ( 'NONE',  ( 0.000000000000000000, -1.000000000000000000, 0.000000000000000000 ) ) ;
#367 = ADVANCED_FACE ( 'NONE', ( #211 ), #324, .T. ) ;
#368 = MECHANICAL_CONTEXT ( 'NONE', #96, 'mechanical' ) ;
#369 = APPROVAL_STATUS ( 'not_yet_approved' ) ;
#370 = EDGE_CURVE ( 'NONE', #320, #85, #206, .T. ) ;
#371 = ORIENTED_EDGE ( 'NONE', *, *, #46, .T. ) ;
#372 = EDGE_CURVE ( 'NONE', #57, #311, #10, .T. ) ;
#373 = ORIENTED_EDGE ( 'NONE', *, *, #19, .T. ) ;
#374 = EDGE_LOOP ( 'NONE', ( #291, #141, #226, #182 ) ) ;
#375 = VECTOR ( 'NONE', #40, 1000.000000000000000 ) ;
#376 = EDGE_LOOP ( 'NONE', ( #318, #1, #86, #232 ) ) ;
#377 = ADVANCED_FACE ( 'NONE', ( #154 ), #33, .T. ) ;
#378 = LINE ( 'NONE', #120, #217 ) ;
#379 = DIRECTION ( 'NONE',  ( 0.08682659386424759762, -0.9924325091389669673, 0.08682659386424759762 ) ) ;
ENDSEC;
END-ISO-10303-21;
