ISO-10303-21;
HEADER;
FILE_DESCRIPTION (( 'STEP AP203' ),
    '1' );
FILE_NAME ('BPA-S-0029C.step',
    '2021-11-30T13:55:02',
    ( '' ),
    ( '' ),
    'SwSTEP 2.0',
    'SolidWorks 2021',
    '' );
FILE_SCHEMA (( 'CONFIG_CONTROL_DESIGN' ));
ENDSEC;

DATA;
#1 = APPROVAL_ROLE ( '' ) ;
#2 = ORIENTED_EDGE ( 'NONE', *, *, #277, .F. ) ;
#3 = ORIENTED_EDGE ( 'NONE', *, *, #286, .T. ) ;
#4 = APPROVAL_STATUS ( 'not_yet_approved' ) ;
#5 = VERTEX_POINT ( 'NONE', #208 ) ;
#6 = CARTESIAN_POINT ( 'NONE',  ( -10.42084199727830018, -3.904780111291199951, 10.42084199727830018 ) ) ;
#7 = LINE ( 'NONE', #188, #313 ) ;
#8 = VECTOR ( 'NONE', #255, 1000.000000000000000 ) ;
#9 = DIRECTION ( 'NONE',  ( -0.08682659386424759762, -0.9924325091389669673, 0.08682659386424759762 ) ) ;
#10 = CARTESIAN_POINT ( 'NONE',  ( 11.50000000000000000, 0.000000000000000000, 11.50000000000000000 ) ) ;
#11 = LINE ( 'NONE', #130, #39 ) ;
#12 = DIRECTION ( 'NONE',  ( 0.000000000000000000, -0.9961946980917455452, 0.08715574274765804097 ) ) ;
#13 = DIRECTION ( 'NONE',  ( 0.000000000000000000, 0.000000000000000000, -1.000000000000000000 ) ) ;
#14 = LINE ( 'NONE', #280, #103 ) ;
#15 = VECTOR ( 'NONE', #283, 1000.000000000000000 ) ;
#16 = LOCAL_TIME ( 8, 55, 2.000000000000000000, #258 ) ;
#17 = CARTESIAN_POINT ( 'NONE',  ( -11.50000000000000000, 0.000000000000000000, 11.50000000000000000 ) ) ;
#18 = ADVANCED_FACE ( 'NONE', ( #245 ), #324, .T. ) ;
#19 = CARTESIAN_POINT ( 'NONE',  ( 11.50000000000000000, 0.000000000000000000, 11.50000000000000000 ) ) ;
#20 = ADVANCED_FACE ( 'NONE', ( #121 ), #32, .T. ) ;
#21 = COORDINATED_UNIVERSAL_TIME_OFFSET ( 5, 0, .BEHIND. ) ;
#22 = VECTOR ( 'NONE', #104, 1000.000000000000000 ) ;
#23 =( NAMED_UNIT ( * ) PLANE_ANGLE_UNIT ( ) SI_UNIT ( $, .RADIAN. ) );
#24 = ORIENTED_EDGE ( 'NONE', *, *, #229, .T. ) ;
#25 = PERSON_AND_ORGANIZATION ( #216, #260 ) ;
#26 = VERTEX_POINT ( 'NONE', #10 ) ;
#27 = ORIENTED_EDGE ( 'NONE', *, *, #161, .F. ) ;
#28 = FACE_OUTER_BOUND ( 'NONE', #88, .T. ) ;
#29 = VECTOR ( 'NONE', #33, 1000.000000000000000 ) ;
#30 = ORIENTED_EDGE ( 'NONE', *, *, #148, .T. ) ;
#31 = SHAPE_DEFINITION_REPRESENTATION ( #360, #312 ) ;
#32 = PLANE ( 'NONE',  #136 ) ;
#33 = DIRECTION ( 'NONE',  ( -1.000000000000000000, 0.000000000000000000, 0.000000000000000000 ) ) ;
#34 = DIRECTION ( 'NONE',  ( 0.000000000000000000, 0.000000000000000000, 1.000000000000000000 ) ) ;
#35 = VECTOR ( 'NONE', #9, 1000.000000000000114 ) ;
#36 = LINE ( 'NONE', #249, #110 ) ;
#37 = CARTESIAN_POINT ( 'NONE',  ( -10.50000000000000000, -3.000000000000000000, -10.50000000000000000 ) ) ;
#38 = LINE ( 'NONE', #194, #8 ) ;
#39 = VECTOR ( 'NONE', #34, 1000.000000000000000 ) ;
#40 = AXIS2_PLACEMENT_3D ( 'NONE', #49, #170, #265 ) ;
#41 = PLANE ( 'NONE',  #186 ) ;
#42 = FACE_OUTER_BOUND ( 'NONE', #178, .T. ) ;
#43 = LINE ( 'NONE', #233, #225 ) ;
#44 = EDGE_CURVE ( 'NONE', #368, #171, #184, .T. ) ;
#45 = DIRECTION ( 'NONE',  ( 0.000000000000000000, -1.000000000000000000, 0.000000000000000000 ) ) ;
#46 = CC_DESIGN_PERSON_AND_ORGANIZATION_ASSIGNMENT ( #149, #176, ( #310 ) ) ;
#47 = PLANE ( 'NONE',  #118 ) ;
#48 = ORIENTED_EDGE ( 'NONE', *, *, #252, .T. ) ;
#49 = CARTESIAN_POINT ( 'NONE',  ( 0.000000000000000000, 0.000000000000000000, 0.000000000000000000 ) ) ;
#50 = VERTEX_POINT ( 'NONE', #190 ) ;
#51 = LOCAL_TIME ( 8, 55, 2.000000000000000000, #21 ) ;
#52 = DATE_AND_TIME ( #123, #370 ) ;
#53 = VERTEX_POINT ( 'NONE', #250 ) ;
#54 = PERSON_AND_ORGANIZATION ( #216, #260 ) ;
#55 = ORIENTED_EDGE ( 'NONE', *, *, #119, .F. ) ;
#56 = DATE_TIME_ROLE ( 'creation_date' ) ;
#57 = ORIENTED_EDGE ( 'NONE', *, *, #85, .T. ) ;
#58 = APPROVAL_ROLE ( '' ) ;
#59 = ADVANCED_FACE ( 'NONE', ( #215 ), #129, .T. ) ;
#60 = EDGE_LOOP ( 'NONE', ( #57, #73, #180, #105 ) ) ;
#61 = CARTESIAN_POINT ( 'NONE',  ( 10.50000000000000000, -3.000000000000000000, 5.250000000000000000 ) ) ;
#62 = DIRECTION ( 'NONE',  ( 1.000000000000000000, 0.000000000000000000, 0.000000000000000000 ) ) ;
#63 = APPROVAL ( #179, 'UNSPECIFIED' ) ;
#64 = CARTESIAN_POINT ( 'NONE',  ( 10.50000000000000000, -14.50000000000000000, -9.493880369451868972 ) ) ;
#65 = APPROVAL_PERSON_ORGANIZATION ( #355, #114, #58 ) ;
#66 = DIRECTION ( 'NONE',  ( 0.000000000000000000, 0.000000000000000000, -1.000000000000000000 ) ) ;
#67 = CARTESIAN_POINT ( 'NONE',  ( -5.250000000000000000, -3.000000000000000000, 10.50000000000000000 ) ) ;
#68 = ADVANCED_FACE ( 'NONE', ( #217 ), #155, .T. ) ;
#69 = CARTESIAN_POINT ( 'NONE',  ( 11.50000000000000000, 0.000000000000000000, -11.50000000000000000 ) ) ;
#70 = LINE ( 'NONE', #75, #76 ) ;
#71 = EDGE_CURVE ( 'NONE', #80, #326, #97, .T. ) ;
#72 = FACE_OUTER_BOUND ( 'NONE', #240, .T. ) ;
#73 = ORIENTED_EDGE ( 'NONE', *, *, #156, .T. ) ;
#74 = CC_DESIGN_PERSON_AND_ORGANIZATION_ASSIGNMENT ( #209, #152, ( #375 ) ) ;
#75 = CARTESIAN_POINT ( 'NONE',  ( 11.50000000000000000, 0.000000000000000000, -11.50000000000000000 ) ) ;
#76 = VECTOR ( 'NONE', #223, 1000.000000000000000 ) ;
#77 = CARTESIAN_POINT ( 'NONE',  ( -11.50000000000000000, 0.000000000000000000, -11.50000000000000000 ) ) ;
#78 = CALENDAR_DATE ( 2021, 30, 11 ) ;
#79 = EDGE_CURVE ( 'NONE', #174, #50, #160, .T. ) ;
#80 = VERTEX_POINT ( 'NONE', #37 ) ;
#81 = ORIENTED_EDGE ( 'NONE', *, *, #148, .F. ) ;
#82 = VECTOR ( 'NONE', #191, 1000.000000000000000 ) ;
#83 = EDGE_LOOP ( 'NONE', ( #182, #102, #24, #244 ) ) ;
#84 = PERSON_AND_ORGANIZATION_ROLE ( 'classification_officer' ) ;
#85 = EDGE_CURVE ( 'NONE', #50, #203, #36, .T. ) ;
#86 = ORIENTED_EDGE ( 'NONE', *, *, #268, .T. ) ;
#87 = CC_DESIGN_PERSON_AND_ORGANIZATION_ASSIGNMENT ( #120, #141, ( #143 ) ) ;
#88 = EDGE_LOOP ( 'NONE', ( #227, #153, #254, #55 ) ) ;
#89 = VECTOR ( 'NONE', #163, 1000.000000000000000 ) ;
#90 = CC_DESIGN_APPROVAL ( #206, ( #310 ) ) ;
#91 = CARTESIAN_POINT ( 'NONE',  ( -9.493880369451868972, -14.50000000000000000, 9.493880369451879631 ) ) ;
#92 = DIRECTION ( 'NONE',  ( 0.000000000000000000, 0.000000000000000000, 1.000000000000000000 ) ) ;
#93 = DIRECTION ( 'NONE',  ( 1.000000000000000000, 0.000000000000000000, 0.000000000000000000 ) ) ;
#94 = CARTESIAN_POINT ( 'NONE',  ( 9.493880369451879631, -14.50000000000000000, 9.493880369451868972 ) ) ;
#95 = MANIFOLD_SOLID_BREP ( 'Imported1', #267 ) ;
#96 = AXIS2_PLACEMENT_3D ( 'NONE', #291, #296, #150 ) ;
#97 = LINE ( 'NONE', #272, #287 ) ;
#98 = EDGE_CURVE ( 'NONE', #171, #80, #298, .T. ) ;
#99 = DIRECTION ( 'NONE',  ( 0.000000000000000000, -0.08715574274765804097, -0.9961946980917455452 ) ) ;
#100 = ORIENTED_EDGE ( 'NONE', *, *, #229, .F. ) ;
#101 = DIRECTION ( 'NONE',  ( -0.08682659386424759762, -0.9924325091389669673, -0.08682659386424759762 ) ) ;
#102 = ORIENTED_EDGE ( 'NONE', *, *, #98, .T. ) ;
#103 = VECTOR ( 'NONE', #132, 1000.000000000000000 ) ;
#104 = DIRECTION ( 'NONE',  ( 0.000000000000000000, 0.000000000000000000, 1.000000000000000000 ) ) ;
#105 = ORIENTED_EDGE ( 'NONE', *, *, #79, .T. ) ;
#106 = FACE_OUTER_BOUND ( 'NONE', #318, .T. ) ;
#107 = ORIENTED_EDGE ( 'NONE', *, *, #166, .F. ) ;
#108 = DIRECTION ( 'NONE',  ( -0.000000000000000000, 1.000000000000000000, 0.000000000000000000 ) ) ;
#109 = ORIENTED_EDGE ( 'NONE', *, *, #98, .F. ) ;
#110 = VECTOR ( 'NONE', #363, 1000.000000000000000 ) ;
#111 = ORIENTED_EDGE ( 'NONE', *, *, #286, .F. ) ;
#112 = EDGE_CURVE ( 'NONE', #262, #145, #125, .T. ) ;
#113 = DIRECTION ( 'NONE',  ( 0.000000000000000000, -1.000000000000000000, 0.000000000000000000 ) ) ;
#114 = APPROVAL ( #295, 'UNSPECIFIED' ) ;
#115 = VERTEX_POINT ( 'NONE', #94 ) ;
#116 = COORDINATED_UNIVERSAL_TIME_OFFSET ( 5, 0, .BEHIND. ) ;
#117 = VERTEX_POINT ( 'NONE', #302 ) ;
#118 = AXIS2_PLACEMENT_3D ( 'NONE', #349, #317, #113 ) ;
#119 = EDGE_CURVE ( 'NONE', #53, #50, #158, .T. ) ;
#120 = PERSON_AND_ORGANIZATION ( #216, #260 ) ;
#121 = FACE_OUTER_BOUND ( 'NONE', #344, .T. ) ;
#122 = EDGE_CURVE ( 'NONE', #171, #309, #162, .T. ) ;
#123 = CALENDAR_DATE ( 2021, 30, 11 ) ;
#124 = EDGE_LOOP ( 'NONE', ( #294, #201, #238, #321 ) ) ;
#125 = LINE ( 'NONE', #6, #220 ) ;
#126 = VECTOR ( 'NONE', #196, 1000.000000000000000 ) ;
#127 = DIRECTION ( 'NONE',  ( -1.000000000000000000, 0.000000000000000000, 0.000000000000000000 ) ) ;
#128 = DIRECTION ( 'NONE',  ( 0.000000000000000000, 0.000000000000000000, 1.000000000000000000 ) ) ;
#129 = PLANE ( 'NONE',  #192 ) ;
#130 = CARTESIAN_POINT ( 'NONE',  ( -9.493880369451868972, -14.50000000000000000, -10.50000000000000000 ) ) ;
#131 = EDGE_CURVE ( 'NONE', #26, #354, #7, .T. ) ;
#132 = DIRECTION ( 'NONE',  ( 1.000000000000000000, 0.000000000000000000, 0.000000000000000000 ) ) ;
#133 = DIRECTION ( 'NONE',  ( 1.000000000000000000, 0.000000000000000000, 0.000000000000000000 ) ) ;
#134 = CARTESIAN_POINT ( 'NONE',  ( 0.000000000000000000, 0.000000000000000000, 0.000000000000000000 ) ) ;
#135 = CC_DESIGN_DATE_AND_TIME_ASSIGNMENT ( #378, #56, ( #310 ) ) ;
#136 = AXIS2_PLACEMENT_3D ( 'NONE', #259, #218, #304 ) ;
#137 = CARTESIAN_POINT ( 'NONE',  ( 10.50000000000000000, -3.000000000000000000, -10.50000000000000000 ) ) ;
#138 = PLANE ( 'NONE',  #320 ) ;
#139 = ORIENTED_EDGE ( 'NONE', *, *, #334, .F. ) ;
#140 = ADVANCED_FACE ( 'NONE', ( #275 ), #359, .T. ) ;
#141 = PERSON_AND_ORGANIZATION_ROLE ( 'design_supplier' ) ;
#142 = AXIS2_PLACEMENT_3D ( 'NONE', #17, #336, #256 ) ;
#143 = PRODUCT_DEFINITION_FORMATION_WITH_SPECIFIED_SOURCE ( 'ANY', '', #375, .NOT_KNOWN. ) ;
#144 = PERSON_AND_ORGANIZATION ( #216, #260 ) ;
#145 = VERTEX_POINT ( 'NONE', #91 ) ;
#146 = CALENDAR_DATE ( 2021, 30, 11 ) ;
#147 = EDGE_LOOP ( 'NONE', ( #285, #346, #27, #288 ) ) ;
#148 = EDGE_CURVE ( 'NONE', #326, #145, #11, .T. ) ;
#149 = PERSON_AND_ORGANIZATION ( #216, #260 ) ;
#150 = DIRECTION ( 'NONE',  ( 0.000000000000000000, 0.000000000000000000, -1.000000000000000000 ) ) ;
#151 = VECTOR ( 'NONE', #128, 1000.000000000000000 ) ;
#152 = PERSON_AND_ORGANIZATION_ROLE ( 'design_owner' ) ;
#153 = ORIENTED_EDGE ( 'NONE', *, *, #224, .T. ) ;
#154 = DATE_TIME_ROLE ( 'classification_date' ) ;
#155 = PLANE ( 'NONE',  #369 ) ;
#156 = EDGE_CURVE ( 'NONE', #203, #117, #335, .T. ) ;
#157 = DESIGN_CONTEXT ( 'detailed design', #339, 'design' ) ;
#158 = LINE ( 'NONE', #274, #164 ) ;
#159 = CARTESIAN_POINT ( 'NONE',  ( 11.50000000000000000, -3.000000000000000000, -11.50000000000000000 ) ) ;
#160 = LINE ( 'NONE', #271, #276 ) ;
#161 = EDGE_CURVE ( 'NONE', #262, #368, #248, .T. ) ;
#162 = LINE ( 'NONE', #222, #35 ) ;
#163 = DIRECTION ( 'NONE',  ( 1.000000000000000000, 0.000000000000000000, 0.000000000000000000 ) ) ;
#164 = VECTOR ( 'NONE', #246, 1000.000000000000000 ) ;
#165 = CARTESIAN_POINT ( 'NONE',  ( -10.50000000000000000, -3.000000000000000000, 10.50000000000000000 ) ) ;
#166 = EDGE_CURVE ( 'NONE', #309, #326, #331, .T. ) ;
#167 = PLANE ( 'NONE',  #357 ) ;
#168 = LINE ( 'NONE', #169, #15 ) ;
#169 = CARTESIAN_POINT ( 'NONE',  ( 11.50000000000000000, -3.000000000000000000, 11.50000000000000000 ) ) ;
#170 = DIRECTION ( 'NONE',  ( 0.000000000000000000, 0.000000000000000000, 1.000000000000000000 ) ) ;
#171 = VERTEX_POINT ( 'NONE', #301 ) ;
#172 = PRODUCT_RELATED_PRODUCT_CATEGORY ( 'detail', '', ( #375 ) ) ;
#173 = APPLICATION_PROTOCOL_DEFINITION ( 'international standard', 'config_control_design', 1994, #339 ) ;
#174 = VERTEX_POINT ( 'NONE', #226 ) ;
#175 = VECTOR ( 'NONE', #278, 1000.000000000000000 ) ;
#176 = PERSON_AND_ORGANIZATION_ROLE ( 'creator' ) ;
#177 = ORIENTED_EDGE ( 'NONE', *, *, #119, .T. ) ;
#178 = EDGE_LOOP ( 'NONE', ( #348, #177, #379, #111 ) ) ;
#179 = APPROVAL_STATUS ( 'not_yet_approved' ) ;
#180 = ORIENTED_EDGE ( 'NONE', *, *, #334, .T. ) ;
#181 = APPROVAL_DATE_TIME ( #270, #114 ) ;
#182 = ORIENTED_EDGE ( 'NONE', *, *, #44, .T. ) ;
#183 = EDGE_CURVE ( 'NONE', #53, #5, #342, .T. ) ;
#184 = LINE ( 'NONE', #61, #235 ) ;
#185 = DIRECTION ( 'NONE',  ( -1.000000000000000000, 0.000000000000000000, 0.000000000000000000 ) ) ;
#186 = AXIS2_PLACEMENT_3D ( 'NONE', #195, #45, #193 ) ;
#187 = SECURITY_CLASSIFICATION ( '', '', #322 ) ;
#188 = CARTESIAN_POINT ( 'NONE',  ( 11.50000000000000000, 0.000000000000000000, 11.50000000000000000 ) ) ;
#189 = ADVANCED_FACE ( 'NONE', ( #72 ), #281, .T. ) ;
#190 = CARTESIAN_POINT ( 'NONE',  ( -11.50000000000000000, -3.000000000000000000, -11.50000000000000000 ) ) ;
#191 = DIRECTION ( 'NONE',  ( -1.000000000000000000, 0.000000000000000000, 0.000000000000000000 ) ) ;
#192 = AXIS2_PLACEMENT_3D ( 'NONE', #300, #92, #356 ) ;
#193 = DIRECTION ( 'NONE',  ( 0.000000000000000000, 0.000000000000000000, -1.000000000000000000 ) ) ;
#194 = CARTESIAN_POINT ( 'NONE',  ( 9.493880369451868972, -14.50000000000000000, 10.50000000000000000 ) ) ;
#195 = CARTESIAN_POINT ( 'NONE',  ( 0.000000000000000000, -3.000000000000000000, 0.000000000000000000 ) ) ;
#196 = DIRECTION ( 'NONE',  ( 0.000000000000000000, 0.000000000000000000, 1.000000000000000000 ) ) ;
#197 = EDGE_CURVE ( 'NONE', #368, #115, #373, .T. ) ;
#198 = PLANE ( 'NONE',  #142 ) ;
#199 = CC_DESIGN_PERSON_AND_ORGANIZATION_ASSIGNMENT ( #54, #347, ( #143 ) ) ;
#200 = DATE_AND_TIME ( #78, #16 ) ;
#201 = ORIENTED_EDGE ( 'NONE', *, *, #122, .F. ) ;
#202 =( NAMED_UNIT ( * ) SI_UNIT ( $, .STERADIAN. ) SOLID_ANGLE_UNIT ( ) );
#203 = VERTEX_POINT ( 'NONE', #371 ) ;
#204 = APPLICATION_CONTEXT ( 'configuration controlled 3d designs of mechanical parts and assemblies' ) ;
#205 = VECTOR ( 'NONE', #93, 1000.000000000000000 ) ;
#206 = APPROVAL ( #4, 'UNSPECIFIED' ) ;
#207 = LOCAL_TIME ( 8, 55, 2.000000000000000000, #211 ) ;
#208 = CARTESIAN_POINT ( 'NONE',  ( 11.50000000000000000, 0.000000000000000000, -11.50000000000000000 ) ) ;
#209 = PERSON_AND_ORGANIZATION ( #216, #260 ) ;
#210 = ORIENTED_EDGE ( 'NONE', *, *, #71, .T. ) ;
#211 = COORDINATED_UNIVERSAL_TIME_OFFSET ( 5, 0, .BEHIND. ) ;
#212 = ORIENTED_EDGE ( 'NONE', *, *, #71, .F. ) ;
#213 = ADVANCED_FACE ( 'NONE', ( #42 ), #198, .T. ) ;
#214 = APPROVAL_PERSON_ORGANIZATION ( #144, #206, #319 ) ;
#215 = FACE_OUTER_BOUND ( 'NONE', #231, .T. ) ;
#216 = PERSON ( 'UNSPECIFIED', 'UNSPECIFIED', 'UNSPECIFIED', ('UNSPECIFIED'), ('UNSPECIFIED'), ('UNSPECIFIED') ) ;
#217 = FACE_OUTER_BOUND ( 'NONE', #147, .T. ) ;
#218 = DIRECTION ( 'NONE',  ( -0.9961946980917455452, -0.08715574274765804097, 0.000000000000000000 ) ) ;
#219 = ADVANCED_FACE ( 'NONE', ( #106 ), #167, .F. ) ;
#220 = VECTOR ( 'NONE', #364, 1000.000000000000114 ) ;
#221 = CARTESIAN_POINT ( 'NONE',  ( -10.50000000000000000, -3.000000000000000000, 10.50000000000000000 ) ) ;
#222 = CARTESIAN_POINT ( 'NONE',  ( 10.42084199727830018, -3.904780111291199951, -10.42084199727830018 ) ) ;
#223 = DIRECTION ( 'NONE',  ( 0.000000000000000000, -1.000000000000000000, 0.000000000000000000 ) ) ;
#224 = EDGE_CURVE ( 'NONE', #5, #203, #70, .T. ) ;
#225 = VECTOR ( 'NONE', #279, 1000.000000000000000 ) ;
#226 = CARTESIAN_POINT ( 'NONE',  ( -11.50000000000000000, -3.000000000000000000, 11.50000000000000000 ) ) ;
#227 = ORIENTED_EDGE ( 'NONE', *, *, #183, .T. ) ;
#228 = CARTESIAN_POINT ( 'NONE',  ( 0.000000000000000000, -14.50000000000000000, 0.000000000000000000 ) ) ;
#229 = EDGE_CURVE ( 'NONE', #80, #262, #367, .T. ) ;
#230 = LINE ( 'NONE', #19, #175 ) ;
#231 = EDGE_LOOP ( 'NONE', ( #264, #3, #139, #269 ) ) ;
#232 = CC_DESIGN_PERSON_AND_ORGANIZATION_ASSIGNMENT ( #243, #84, ( #187 ) ) ;
#233 = CARTESIAN_POINT ( 'NONE',  ( -11.50000000000000000, 0.000000000000000000, 11.50000000000000000 ) ) ;
#234 = ORIENTED_EDGE ( 'NONE', *, *, #112, .F. ) ;
#235 = VECTOR ( 'NONE', #247, 1000.000000000000000 ) ;
#236 = ORIENTED_EDGE ( 'NONE', *, *, #131, .F. ) ;
#237 = DATE_AND_TIME ( #146, #51 ) ;
#238 = ORIENTED_EDGE ( 'NONE', *, *, #44, .F. ) ;
#239 = CARTESIAN_POINT ( 'NONE',  ( 10.50000000000000000, -3.000000000000000000, 10.50000000000000000 ) ) ;
#240 = EDGE_LOOP ( 'NONE', ( #353, #212, #109, #341 ) ) ;
#241 = VECTOR ( 'NONE', #13, 1000.000000000000000 ) ;
#242 = APPROVAL_PERSON_ORGANIZATION ( #25, #63, #1 ) ;
#243 = PERSON_AND_ORGANIZATION ( #216, #260 ) ;
#244 = ORIENTED_EDGE ( 'NONE', *, *, #161, .T. ) ;
#245 = FACE_OUTER_BOUND ( 'NONE', #124, .T. ) ;
#246 = DIRECTION ( 'NONE',  ( 0.000000000000000000, -1.000000000000000000, 0.000000000000000000 ) ) ;
#247 = DIRECTION ( 'NONE',  ( 0.000000000000000000, 0.000000000000000000, -1.000000000000000000 ) ) ;
#248 = LINE ( 'NONE', #67, #205 ) ;
#249 = CARTESIAN_POINT ( 'NONE',  ( -11.50000000000000000, -3.000000000000000000, -11.50000000000000000 ) ) ;
#250 = CARTESIAN_POINT ( 'NONE',  ( -11.50000000000000000, 0.000000000000000000, -11.50000000000000000 ) ) ;
#251 = DIRECTION ( 'NONE',  ( 1.000000000000000000, 0.000000000000000000, 0.000000000000000000 ) ) ;
#252 = EDGE_CURVE ( 'NONE', #5, #26, #340, .T. ) ;
#253 = FACE_OUTER_BOUND ( 'NONE', #60, .T. ) ;
#254 = ORIENTED_EDGE ( 'NONE', *, *, #85, .F. ) ;
#255 = DIRECTION ( 'NONE',  ( 0.000000000000000000, 0.000000000000000000, -1.000000000000000000 ) ) ;
#256 = DIRECTION ( 'NONE',  ( 0.000000000000000000, 0.000000000000000000, 1.000000000000000000 ) ) ;
#257 = CARTESIAN_POINT ( 'NONE',  ( -11.50000000000000000, 0.000000000000000000, 11.50000000000000000 ) ) ;
#258 = COORDINATED_UNIVERSAL_TIME_OFFSET ( 5, 0, .BEHIND. ) ;
#259 = CARTESIAN_POINT ( 'NONE',  ( -10.50000000000000000, -3.000000000000000000, -10.50000000000000000 ) ) ;
#260 = ORGANIZATION ( 'UNSPECIFIED', 'UNSPECIFIED', '' ) ;
#261 = APPROVAL_DATE_TIME ( #52, #206 ) ;
#262 = VERTEX_POINT ( 'NONE', #165 ) ;
#263 = APPROVAL_DATE_TIME ( #237, #63 ) ;
#264 = ORIENTED_EDGE ( 'NONE', *, *, #131, .T. ) ;
#265 = DIRECTION ( 'NONE',  ( 1.000000000000000000, 0.000000000000000000, 0.000000000000000000 ) ) ;
#266 = ORIENTED_EDGE ( 'NONE', *, *, #293, .F. ) ;
#267 = CLOSED_SHELL ( 'NONE', ( #303, #323, #362, #140, #59, #213, #219, #68, #20, #189, #18 ) ) ;
#268 = EDGE_CURVE ( 'NONE', #26, #117, #230, .T. ) ;
#269 = ORIENTED_EDGE ( 'NONE', *, *, #268, .F. ) ;
#270 = DATE_AND_TIME ( #327, #207 ) ;
#271 = CARTESIAN_POINT ( 'NONE',  ( -11.50000000000000000, -3.000000000000000000, 11.50000000000000000 ) ) ;
#272 = CARTESIAN_POINT ( 'NONE',  ( -10.42084199727830018, -3.904780111291199951, -10.42084199727830018 ) ) ;
#273 = DIRECTION ( 'NONE',  ( 0.000000000000000000, 1.000000000000000000, 0.000000000000000000 ) ) ;
#274 = CARTESIAN_POINT ( 'NONE',  ( -11.50000000000000000, 0.000000000000000000, -11.50000000000000000 ) ) ;
#275 = FACE_OUTER_BOUND ( 'NONE', #328, .T. ) ;
#276 = VECTOR ( 'NONE', #66, 1000.000000000000000 ) ;
#277 = EDGE_CURVE ( 'NONE', #115, #309, #38, .T. ) ;
#278 = DIRECTION ( 'NONE',  ( 0.000000000000000000, -1.000000000000000000, 0.000000000000000000 ) ) ;
#279 = DIRECTION ( 'NONE',  ( 0.000000000000000000, -1.000000000000000000, 0.000000000000000000 ) ) ;
#280 = CARTESIAN_POINT ( 'NONE',  ( -10.50000000000000000, -14.50000000000000000, 9.493880369451868972 ) ) ;
#281 = PLANE ( 'NONE',  #350 ) ;
#282 = CC_DESIGN_SECURITY_CLASSIFICATION ( #187, ( #143 ) ) ;
#283 = DIRECTION ( 'NONE',  ( -1.000000000000000000, 0.000000000000000000, 0.000000000000000000 ) ) ;
#284 = COORDINATED_UNIVERSAL_TIME_OFFSET ( 5, 0, .BEHIND. ) ;
#285 = ORIENTED_EDGE ( 'NONE', *, *, #293, .T. ) ;
#286 = EDGE_CURVE ( 'NONE', #354, #174, #43, .T. ) ;
#287 = VECTOR ( 'NONE', #329, 1000.000000000000114 ) ;
#288 = ORIENTED_EDGE ( 'NONE', *, *, #112, .T. ) ;
#289 = ORIENTED_EDGE ( 'NONE', *, *, #345, .F. ) ;
#290 = CARTESIAN_POINT ( 'NONE',  ( -11.50000000000000000, 0.000000000000000000, 11.50000000000000000 ) ) ;
#291 = CARTESIAN_POINT ( 'NONE',  ( 10.50000000000000000, -3.000000000000000000, 10.50000000000000000 ) ) ;
#292 = MECHANICAL_CONTEXT ( 'NONE', #204, 'mechanical' ) ;
#293 = EDGE_CURVE ( 'NONE', #145, #115, #14, .T. ) ;
#294 = ORIENTED_EDGE ( 'NONE', *, *, #277, .T. ) ;
#295 = APPROVAL_STATUS ( 'not_yet_approved' ) ;
#296 = DIRECTION ( 'NONE',  ( 0.9961946980917455452, -0.08715574274765804097, 0.000000000000000000 ) ) ;
#297 = UNCERTAINTY_MEASURE_WITH_UNIT (LENGTH_MEASURE( 1.000000000000000082E-05 ), #352, 'distance_accuracy_value', 'NONE');
#298 = LINE ( 'NONE', #333, #29 ) ;
#299 = CC_DESIGN_DATE_AND_TIME_ASSIGNMENT ( #200, #154, ( #187 ) ) ;
#300 = CARTESIAN_POINT ( 'NONE',  ( 11.50000000000000000, 0.000000000000000000, 11.50000000000000000 ) ) ;
#301 = CARTESIAN_POINT ( 'NONE',  ( 10.50000000000000000, -3.000000000000000000, -10.50000000000000000 ) ) ;
#302 = CARTESIAN_POINT ( 'NONE',  ( 11.50000000000000000, -3.000000000000000000, 11.50000000000000000 ) ) ;
#303 = ADVANCED_FACE ( 'NONE', ( #314 ), #138, .T. ) ;
#304 = DIRECTION ( 'NONE',  ( -0.08715574274765804097, 0.9961946980917455452, 0.000000000000000000 ) ) ;
#305 = VECTOR ( 'NONE', #101, 1000.000000000000114 ) ;
#306 = LOCAL_TIME ( 8, 55, 2.000000000000000000, #284 ) ;
#307 = LINE ( 'NONE', #257, #241 ) ;
#308 = CARTESIAN_POINT ( 'NONE',  ( 10.42084199727830018, -3.904780111291199951, 10.42084199727830018 ) ) ;
#309 = VERTEX_POINT ( 'NONE', #365 ) ;
#310 = PRODUCT_DEFINITION ( 'UNKNOWN', '', #143, #157 ) ;
#311 = CARTESIAN_POINT ( 'NONE',  ( -9.493880369451879631, -14.50000000000000000, -9.493880369451868972 ) ) ;
#312 = ADVANCED_BREP_SHAPE_REPRESENTATION ( 'BPA-S-0029C', ( #95, #40 ), #332 ) ;
#313 = VECTOR ( 'NONE', #127, 1000.000000000000000 ) ;
#314 = FACE_OUTER_BOUND ( 'NONE', #351, .T. ) ;
#315 = APPLICATION_PROTOCOL_DEFINITION ( 'international standard', 'config_control_design', 1994, #204 ) ;
#316 = ORIENTED_EDGE ( 'NONE', *, *, #183, .F. ) ;
#317 = DIRECTION ( 'NONE',  ( 0.000000000000000000, 0.000000000000000000, -1.000000000000000000 ) ) ;
#318 = EDGE_LOOP ( 'NONE', ( #2, #266, #81, #107 ) ) ;
#319 = APPROVAL_ROLE ( '' ) ;
#320 = AXIS2_PLACEMENT_3D ( 'NONE', #134, #343, #251 ) ;
#321 = ORIENTED_EDGE ( 'NONE', *, *, #197, .T. ) ;
#322 = SECURITY_CLASSIFICATION_LEVEL ( 'unclassified' ) ;
#323 = ADVANCED_FACE ( 'NONE', ( #338, #253 ), #41, .T. ) ;
#324 = PLANE ( 'NONE',  #96 ) ;
#325 = CALENDAR_DATE ( 2021, 30, 11 ) ;
#326 = VERTEX_POINT ( 'NONE', #311 ) ;
#327 = CALENDAR_DATE ( 2021, 30, 11 ) ;
#328 = EDGE_LOOP ( 'NONE', ( #48, #86, #374, #377 ) ) ;
#329 = DIRECTION ( 'NONE',  ( 0.08682659386424759762, -0.9924325091389669673, 0.08682659386424759762 ) ) ;
#330 = CARTESIAN_POINT ( 'NONE',  ( 11.50000000000000000, 0.000000000000000000, -11.50000000000000000 ) ) ;
#331 = LINE ( 'NONE', #64, #82 ) ;
#332 =( GEOMETRIC_REPRESENTATION_CONTEXT ( 3 ) GLOBAL_UNCERTAINTY_ASSIGNED_CONTEXT ( ( #297 ) ) GLOBAL_UNIT_ASSIGNED_CONTEXT ( ( #352, #23, #202 ) ) REPRESENTATION_CONTEXT ( 'NONE', 'WORKASPACE' ) );
#333 = CARTESIAN_POINT ( 'NONE',  ( 5.250000000000000000, -3.000000000000000000, -10.50000000000000000 ) ) ;
#334 = EDGE_CURVE ( 'NONE', #117, #174, #168, .T. ) ;
#335 = LINE ( 'NONE', #159, #151 ) ;
#336 = DIRECTION ( 'NONE',  ( -1.000000000000000000, 0.000000000000000000, 0.000000000000000000 ) ) ;
#337 = CC_DESIGN_APPROVAL ( #114, ( #187 ) ) ;
#338 = FACE_BOUND ( 'NONE', #83, .T. ) ;
#339 = APPLICATION_CONTEXT ( 'configuration controlled 3d designs of mechanical parts and assemblies' ) ;
#340 = LINE ( 'NONE', #69, #126 ) ;
#341 = ORIENTED_EDGE ( 'NONE', *, *, #122, .T. ) ;
#342 = LINE ( 'NONE', #77, #89 ) ;
#343 = DIRECTION ( 'NONE',  ( -0.000000000000000000, 1.000000000000000000, 0.000000000000000000 ) ) ;
#344 = EDGE_LOOP ( 'NONE', ( #30, #234, #100, #210 ) ) ;
#345 = EDGE_CURVE ( 'NONE', #354, #53, #307, .T. ) ;
#346 = ORIENTED_EDGE ( 'NONE', *, *, #197, .F. ) ;
#347 = PERSON_AND_ORGANIZATION_ROLE ( 'creator' ) ;
#348 = ORIENTED_EDGE ( 'NONE', *, *, #345, .T. ) ;
#349 = CARTESIAN_POINT ( 'NONE',  ( -11.50000000000000000, 0.000000000000000000, -11.50000000000000000 ) ) ;
#350 = AXIS2_PLACEMENT_3D ( 'NONE', #137, #99, #12 ) ;
#351 = EDGE_LOOP ( 'NONE', ( #316, #289, #236, #366 ) ) ;
#352 =( LENGTH_UNIT ( ) NAMED_UNIT ( * ) SI_UNIT ( .MILLI., .METRE. ) );
#353 = ORIENTED_EDGE ( 'NONE', *, *, #166, .T. ) ;
#354 = VERTEX_POINT ( 'NONE', #290 ) ;
#355 = PERSON_AND_ORGANIZATION ( #216, #260 ) ;
#356 = DIRECTION ( 'NONE',  ( 1.000000000000000000, 0.000000000000000000, 0.000000000000000000 ) ) ;
#357 = AXIS2_PLACEMENT_3D ( 'NONE', #228, #108, #133 ) ;
#358 = CC_DESIGN_APPROVAL ( #63, ( #143 ) ) ;
#359 = PLANE ( 'NONE',  #376 ) ;
#360 = PRODUCT_DEFINITION_SHAPE ( 'NONE', 'NONE',  #310 ) ;
#361 = DIRECTION ( 'NONE',  ( 0.000000000000000000, -0.08715574274765804097, 0.9961946980917455452 ) ) ;
#362 = ADVANCED_FACE ( 'NONE', ( #28 ), #47, .T. ) ;
#363 = DIRECTION ( 'NONE',  ( 1.000000000000000000, 0.000000000000000000, 0.000000000000000000 ) ) ;
#364 = DIRECTION ( 'NONE',  ( 0.08682659386424759762, -0.9924325091389669673, -0.08682659386424759762 ) ) ;
#365 = CARTESIAN_POINT ( 'NONE',  ( 9.493880369451868972, -14.50000000000000000, -9.493880369451879631 ) ) ;
#366 = ORIENTED_EDGE ( 'NONE', *, *, #252, .F. ) ;
#367 = LINE ( 'NONE', #372, #22 ) ;
#368 = VERTEX_POINT ( 'NONE', #239 ) ;
#369 = AXIS2_PLACEMENT_3D ( 'NONE', #221, #361, #185 ) ;
#370 = LOCAL_TIME ( 8, 55, 2.000000000000000000, #116 ) ;
#371 = CARTESIAN_POINT ( 'NONE',  ( 11.50000000000000000, -3.000000000000000000, -11.50000000000000000 ) ) ;
#372 = CARTESIAN_POINT ( 'NONE',  ( -10.50000000000000000, -3.000000000000000000, -5.250000000000000000 ) ) ;
#373 = LINE ( 'NONE', #308, #305 ) ;
#374 = ORIENTED_EDGE ( 'NONE', *, *, #156, .F. ) ;
#375 = PRODUCT ( 'BPA-S-0029C', 'BPA-S-0029C', '', ( #292 ) ) ;
#376 = AXIS2_PLACEMENT_3D ( 'NONE', #330, #62, #273 ) ;
#377 = ORIENTED_EDGE ( 'NONE', *, *, #224, .F. ) ;
#378 = DATE_AND_TIME ( #325, #306 ) ;
#379 = ORIENTED_EDGE ( 'NONE', *, *, #79, .F. ) ;
ENDSEC;
END-ISO-10303-21;
