ISO-10303-21;
HEADER;
FILE_DESCRIPTION (( 'STEP AP214' ),
    '1' );
FILE_NAME ('BP88A.STEP',
    '2023-12-20T19:30:16',
    ( '' ),
    ( '' ),
    'SwSTEP 2.0',
    'SolidWorks 2023',
    '' );
FILE_SCHEMA (( 'AUTOMOTIVE_DESIGN' ));
ENDSEC;

DATA;
#1 = DIRECTION ( 'NONE',  ( -0.000000000000000000, -0.000000000000000000, -1.000000000000000000 ) ) ;
#2 = LENGTH_MEASURE_WITH_UNIT ( LENGTH_MEASURE( 0.02539999999999999897 ), #308 );
#3 = APPLICATION_PROTOCOL_DEFINITION ( 'draft international standard', 'automotive_design', 1998, #143 ) ;
#4 = EDGE_LOOP ( 'NONE', ( #209 ) ) ;
#5 =( NAMED_UNIT ( * ) SI_UNIT ( $, .STERADIAN. ) SOLID_ANGLE_UNIT ( ) );
#6 = EDGE_LOOP ( 'NONE', ( #233 ) ) ;
#7 = EDGE_LOOP ( 'NONE', ( #172 ) ) ;
#8 = CARTESIAN_POINT ( 'NONE',  ( 3.250000000000000000, -3.125000000000000000, 0.04000000000000000083 ) ) ;
#9 = ORIENTED_EDGE ( 'NONE', *, *, #146, .F. ) ;
#10 = VECTOR ( 'NONE', #247, 39.37007874015748143 ) ;
#11 = EDGE_LOOP ( 'NONE', ( #27 ) ) ;
#12 = DIRECTION ( 'NONE',  ( 0.000000000000000000, 0.000000000000000000, 1.000000000000000000 ) ) ;
#13 = CYLINDRICAL_SURFACE ( 'NONE', #45, 0.1249999999999999029 ) ;
#14 = FACE_BOUND ( 'NONE', #136, .T. ) ;
#15 = MECHANICAL_DESIGN_GEOMETRIC_PRESENTATION_REPRESENTATION (  '', ( #121 ), #134 ) ;
#16 = CARTESIAN_POINT ( 'NONE',  ( -3.437500000000000000, 1.748382715945129988E-16, 0.04000000000000000083 ) ) ;
#17 = FACE_OUTER_BOUND ( 'NONE', #11, .T. ) ;
#18 = DIRECTION ( 'NONE',  ( -0.000000000000000000, -0.000000000000000000, -1.000000000000000000 ) ) ;
#19 = CARTESIAN_POINT ( 'NONE',  ( -3.437500000000000000, 3.437500000000000000, -0.04000000000000000083 ) ) ;
#20 = FACE_OUTER_BOUND ( 'NONE', #109, .T. ) ;
#21 = EDGE_CURVE ( 'NONE', #310, #161, #319, .T. ) ;
#22 = DIRECTION ( 'NONE',  ( 1.000000000000000000, 0.000000000000000000, 0.000000000000000000 ) ) ;
#23 = AXIS2_PLACEMENT_3D ( 'NONE', #155, #1, #22 ) ;
#24 = FACE_BOUND ( 'NONE', #6, .T. ) ;
#25 = DIRECTION ( 'NONE',  ( 1.000000000000000000, -2.034481705827059785E-16, 0.000000000000000000 ) ) ;
#26 = DIRECTION ( 'NONE',  ( -0.000000000000000000, -0.000000000000000000, -1.000000000000000000 ) ) ;
#27 = ORIENTED_EDGE ( 'NONE', *, *, #325, .F. ) ;
#28 =( LENGTH_UNIT ( ) NAMED_UNIT ( * ) SI_UNIT ( $, .METRE. ) );
#29 = AXIS2_PLACEMENT_3D ( 'NONE', #194, #245, #99 ) ;
#30 = AXIS2_PLACEMENT_3D ( 'NONE', #321, #12, #70 ) ;
#31 = ORIENTED_EDGE ( 'NONE', *, *, #227, .F. ) ;
#32 = ORIENTED_EDGE ( 'NONE', *, *, #122, .T. ) ;
#33 = ADVANCED_FACE ( 'NONE', ( #17, #217 ), #13, .F. ) ;
#34 = DIRECTION ( 'NONE',  ( 1.000000000000000000, 0.000000000000000000, 0.000000000000000000 ) ) ;
#35 = VERTEX_POINT ( 'NONE', #269 ) ;
#36 = EDGE_LOOP ( 'NONE', ( #223, #32, #312, #185 ) ) ;
#37 = EDGE_LOOP ( 'NONE', ( #91 ) ) ;
#38 = DIRECTION ( 'NONE',  ( 1.000000000000000000, 0.000000000000000000, 0.000000000000000000 ) ) ;
#39 = DIRECTION ( 'NONE',  ( 0.000000000000000000, -1.000000000000000000, -0.000000000000000000 ) ) ;
#40 = APPLICATION_PROTOCOL_DEFINITION ( 'draft international standard', 'automotive_design', 1998, #106 ) ;
#41 = CARTESIAN_POINT ( 'NONE',  ( -3.437500000000000000, 3.437500000000000000, 0.04000000000000000083 ) ) ;
#42 = CARTESIAN_POINT ( 'NONE',  ( -3.125000000000000000, 3.125000000000000000, 0.000000000000000000 ) ) ;
#43 = CARTESIAN_POINT ( 'NONE',  ( -3.437500000000000000, -3.437499999999999556, 0.04000000000000000083 ) ) ;
#44 = DIMENSIONAL_EXPONENTS ( 1.000000000000000000, 0.000000000000000000, 0.000000000000000000, 0.000000000000000000, 0.000000000000000000, 0.000000000000000000, 0.000000000000000000 ) ;
#45 = AXIS2_PLACEMENT_3D ( 'NONE', #42, #144, #68 ) ;
#46 = CIRCLE ( 'NONE', #212, 0.1249999999999999029 ) ;
#47 = FACE_OUTER_BOUND ( 'NONE', #65, .T. ) ;
#48 = EDGE_CURVE ( 'NONE', #112, #259, #294, .T. ) ;
#49 = CARTESIAN_POINT ( 'NONE',  ( 3.437500000000000888, -3.437500000000000000, -0.04000000000000000083 ) ) ;
#50 = FACE_OUTER_BOUND ( 'NONE', #187, .T. ) ;
#51 = VECTOR ( 'NONE', #82, 39.37007874015748143 ) ;
#52 = CYLINDRICAL_SURFACE ( 'NONE', #159, 0.1249999999999999029 ) ;
#53 = PRODUCT ( 'BP88A', 'BP88A', '', ( #119 ) ) ;
#54 = ADVANCED_FACE ( 'NONE', ( #145, #267, #14, #118, #124 ), #239, .F. ) ;
#55 = CARTESIAN_POINT ( 'NONE',  ( -3.000000000000000444, -3.125000000000000000, -0.04000000000000000083 ) ) ;
#56 = ORIENTED_EDGE ( 'NONE', *, *, #63, .T. ) ;
#57 =( NAMED_UNIT ( * ) SI_UNIT ( $, .STERADIAN. ) SOLID_ANGLE_UNIT ( ) );
#58 = EDGE_LOOP ( 'NONE', ( #62 ) ) ;
#59 = VERTEX_POINT ( 'NONE', #8 ) ;
#60 = ADVANCED_FACE ( 'NONE', ( #125 ), #96, .T. ) ;
#61 = CIRCLE ( 'NONE', #293, 0.1249999999999999029 ) ;
#62 = ORIENTED_EDGE ( 'NONE', *, *, #270, .T. ) ;
#63 = EDGE_CURVE ( 'NONE', #288, #288, #113, .T. ) ;
#64 = CARTESIAN_POINT ( 'NONE',  ( 3.250000000000000000, 3.125000000000000000, 0.04000000000000000083 ) ) ;
#65 = EDGE_LOOP ( 'NONE', ( #261 ) ) ;
#66 = SURFACE_STYLE_FILL_AREA ( #208 ) ;
#67 = ORIENTED_EDGE ( 'NONE', *, *, #199, .T. ) ;
#68 = DIRECTION ( 'NONE',  ( 1.000000000000000000, 0.000000000000000000, 0.000000000000000000 ) ) ;
#69 = AXIS2_PLACEMENT_3D ( 'NONE', #236, #138, #34 ) ;
#70 = DIRECTION ( 'NONE',  ( 1.000000000000000000, 0.000000000000000000, 0.000000000000000000 ) ) ;
#71 = CARTESIAN_POINT ( 'NONE',  ( -3.125000000000000000, -3.125000000000000000, 0.04000000000000000083 ) ) ;
#72 = LINE ( 'NONE', #16, #328 ) ;
#73 = DIRECTION ( 'NONE',  ( -1.017240852913529893E-16, 1.000000000000000000, 0.000000000000000000 ) ) ;
#74 = SHAPE_DEFINITION_REPRESENTATION ( #320, #248 ) ;
#75 = DIRECTION ( 'NONE',  ( -1.000000000000000000, -0.000000000000000000, 0.000000000000000000 ) ) ;
#76 = DIRECTION ( 'NONE',  ( 0.000000000000000000, 0.000000000000000000, 1.000000000000000000 ) ) ;
#77 = FACE_OUTER_BOUND ( 'NONE', #37, .T. ) ;
#78 = CIRCLE ( 'NONE', #257, 0.1249999999999999029 ) ;
#79 = CIRCLE ( 'NONE', #164, 0.1249999999999999029 ) ;
#80 = CARTESIAN_POINT ( 'NONE',  ( -3.437500000000000000, -3.437499999999998668, 0.000000000000000000 ) ) ;
#81 = UNCERTAINTY_MEASURE_WITH_UNIT (LENGTH_MEASURE( 1.000000000000000082E-05 ), #87, 'distance_accuracy_value', 'NONE');
#82 = DIRECTION ( 'NONE',  ( -0.000000000000000000, -0.000000000000000000, -1.000000000000000000 ) ) ;
#83 = DIRECTION ( 'NONE',  ( 1.000000000000000000, 0.000000000000000000, 0.000000000000000000 ) ) ;
#84 = PRESENTATION_LAYER_ASSIGNMENT (  '', '', ( #121 ) ) ;
#85 = ORIENTED_EDGE ( 'NONE', *, *, #122, .F. ) ;
#86 = EDGE_CURVE ( 'NONE', #190, #190, #78, .T. ) ;
#87 =( CONVERSION_BASED_UNIT ( 'INCH', #254 ) LENGTH_UNIT ( ) NAMED_UNIT ( #44 ) );
#88 = ORIENTED_EDGE ( 'NONE', *, *, #117, .F. ) ;
#89 = CARTESIAN_POINT ( 'NONE',  ( 3.250000000000000000, -3.125000000000000000, -0.04000000000000000083 ) ) ;
#90 = EDGE_LOOP ( 'NONE', ( #316, #31, #290, #139 ) ) ;
#91 = ORIENTED_EDGE ( 'NONE', *, *, #180, .F. ) ;
#92 = VERTEX_POINT ( 'NONE', #41 ) ;
#93 = ADVANCED_FACE ( 'NONE', ( #120 ), #220, .T. ) ;
#94 = CARTESIAN_POINT ( 'NONE',  ( -3.496765431890259976E-16, 1.748382715945129988E-16, -0.04000000000000000083 ) ) ;
#95 = AXIS2_PLACEMENT_3D ( 'NONE', #302, #158, #221 ) ;
#96 = PLANE ( 'NONE',  #29 ) ;
#97 = EDGE_CURVE ( 'NONE', #92, #167, #72, .T. ) ;
#98 = EDGE_CURVE ( 'NONE', #167, #35, #149, .T. ) ;
#99 = DIRECTION ( 'NONE',  ( 0.000000000000000000, 0.000000000000000000, 1.000000000000000000 ) ) ;
#100 = CARTESIAN_POINT ( 'NONE',  ( 3.437500000000000000, -3.437500000000000000, -0.04000000000000000083 ) ) ;
#101 = LINE ( 'NONE', #80, #241 ) ;
#102 = CARTESIAN_POINT ( 'NONE',  ( 3.437500000000000000, 3.437500000000000888, -0.04000000000000000083 ) ) ;
#103 = LINE ( 'NONE', #202, #298 ) ;
#104 = FACE_OUTER_BOUND ( 'NONE', #115, .T. ) ;
#105 = FACE_OUTER_BOUND ( 'NONE', #214, .T. ) ;
#106 = APPLICATION_CONTEXT ( 'automotive_design' ) ;
#107 = CARTESIAN_POINT ( 'NONE',  ( -3.000000000000000444, -3.125000000000000000, 0.04000000000000000083 ) ) ;
#108 = CARTESIAN_POINT ( 'NONE',  ( 3.250000000000000000, 3.125000000000000000, -0.04000000000000000083 ) ) ;
#109 = EDGE_LOOP ( 'NONE', ( #137 ) ) ;
#110 = SURFACE_SIDE_STYLE ('',( #66 ) ) ;
#111 = ORIENTED_EDGE ( 'NONE', *, *, #97, .T. ) ;
#112 = VERTEX_POINT ( 'NONE', #123 ) ;
#113 = CIRCLE ( 'NONE', #126, 0.1249999999999999029 ) ;
#114 = AXIS2_PLACEMENT_3D ( 'NONE', #184, #26, #141 ) ;
#115 = EDGE_LOOP ( 'NONE', ( #133, #171, #9, #238 ) ) ;
#116 = ORIENTED_EDGE ( 'NONE', *, *, #295, .T. ) ;
#117 = EDGE_CURVE ( 'NONE', #283, #283, #46, .T. ) ;
#118 = FACE_BOUND ( 'NONE', #4, .T. ) ;
#119 = PRODUCT_CONTEXT ( 'NONE', #143, 'mechanical' ) ;
#120 = FACE_OUTER_BOUND ( 'NONE', #235, .T. ) ;
#121 = STYLED_ITEM ( 'NONE', ( #286 ), #314 ) ;
#122 = EDGE_CURVE ( 'NONE', #259, #35, #198, .T. ) ;
#123 = CARTESIAN_POINT ( 'NONE',  ( -3.437500000000000000, -3.437499999999999556, -0.04000000000000000083 ) ) ;
#124 = FACE_OUTER_BOUND ( 'NONE', #90, .T. ) ;
#125 = FACE_OUTER_BOUND ( 'NONE', #163, .T. ) ;
#126 = AXIS2_PLACEMENT_3D ( 'NONE', #71, #195, #38 ) ;
#127 = DIRECTION ( 'NONE',  ( 0.000000000000000000, 0.000000000000000000, 1.000000000000000000 ) ) ;
#128 = LINE ( 'NONE', #327, #231 ) ;
#129 = DIRECTION ( 'NONE',  ( 0.000000000000000000, -0.000000000000000000, -1.000000000000000000 ) ) ;
#130 = FACE_BOUND ( 'NONE', #191, .T. ) ;
#131 = CARTESIAN_POINT ( 'NONE',  ( -3.437500000000000000, -3.437500000000000000, -0.04000000000000000083 ) ) ;
#132 = CYLINDRICAL_SURFACE ( 'NONE', #69, 0.1249999999999999029 ) ;
#133 = ORIENTED_EDGE ( 'NONE', *, *, #305, .T. ) ;
#134 =( GEOMETRIC_REPRESENTATION_CONTEXT ( 3 ) GLOBAL_UNCERTAINTY_ASSIGNED_CONTEXT ( ( #81 ) ) GLOBAL_UNIT_ASSIGNED_CONTEXT ( ( #87, #166, #57 ) ) REPRESENTATION_CONTEXT ( 'NONE', 'WORKASPACE' ) );
#135 = VERTEX_POINT ( 'NONE', #55 ) ;
#136 = EDGE_LOOP ( 'NONE', ( #142 ) ) ;
#137 = ORIENTED_EDGE ( 'NONE', *, *, #199, .F. ) ;
#138 = DIRECTION ( 'NONE',  ( 0.000000000000000000, 0.000000000000000000, 1.000000000000000000 ) ) ;
#139 = ORIENTED_EDGE ( 'NONE', *, *, #295, .F. ) ;
#140 = VECTOR ( 'NONE', #169, 39.37007874015748143 ) ;
#141 = DIRECTION ( 'NONE',  ( 1.000000000000000000, 0.000000000000000000, 0.000000000000000000 ) ) ;
#142 = ORIENTED_EDGE ( 'NONE', *, *, #180, .T. ) ;
#143 = APPLICATION_CONTEXT ( 'automotive_design' ) ;
#144 = DIRECTION ( 'NONE',  ( 0.000000000000000000, 0.000000000000000000, 1.000000000000000000 ) ) ;
#145 = FACE_BOUND ( 'NONE', #211, .T. ) ;
#146 = EDGE_CURVE ( 'NONE', #310, #92, #244, .T. ) ;
#147 = DIMENSIONAL_EXPONENTS ( 1.000000000000000000, 0.000000000000000000, 0.000000000000000000, 0.000000000000000000, 0.000000000000000000, 0.000000000000000000, 0.000000000000000000 ) ;
#148 = AXIS2_PLACEMENT_3D ( 'NONE', #219, #296, #73 ) ;
#149 = LINE ( 'NONE', #242, #272 ) ;
#150 = DIRECTION ( 'NONE',  ( 1.000000000000000000, 0.000000000000000000, -0.000000000000000000 ) ) ;
#151 = ORIENTED_EDGE ( 'NONE', *, *, #97, .F. ) ;
#152 = FACE_OUTER_BOUND ( 'NONE', #285, .T. ) ;
#153 = AXIS2_PLACEMENT_3D ( 'NONE', #277, #127, #181 ) ;
#154 = DIRECTION ( 'NONE',  ( -1.017240852913529893E-16, 1.000000000000000000, 0.000000000000000000 ) ) ;
#155 = CARTESIAN_POINT ( 'NONE',  ( 3.125000000000000000, -3.125000000000000000, 0.04000000000000000083 ) ) ;
#156 = ADVANCED_FACE ( 'NONE', ( #174 ), #324, .T. ) ;
#157 = EDGE_CURVE ( 'NONE', #92, #309, #224, .T. ) ;
#158 = DIRECTION ( 'NONE',  ( 0.000000000000000000, 0.000000000000000000, 1.000000000000000000 ) ) ;
#159 = AXIS2_PLACEMENT_3D ( 'NONE', #253, #76, #280 ) ;
#160 = DIRECTION ( 'NONE',  ( 0.000000000000000000, 0.000000000000000000, 1.000000000000000000 ) ) ;
#161 = VERTEX_POINT ( 'NONE', #102 ) ;
#162 = CARTESIAN_POINT ( 'NONE',  ( -3.000000000000000444, 3.125000000000000000, -0.04000000000000000083 ) ) ;
#163 = EDGE_LOOP ( 'NONE', ( #116, #263, #151, #213 ) ) ;
#164 = AXIS2_PLACEMENT_3D ( 'NONE', #179, #329, #304 ) ;
#165 = ORIENTED_EDGE ( 'NONE', *, *, #86, .F. ) ;
#166 =( NAMED_UNIT ( * ) PLANE_ANGLE_UNIT ( ) SI_UNIT ( $, .RADIAN. ) );
#167 = VERTEX_POINT ( 'NONE', #43 ) ;
#168 = ORIENTED_EDGE ( 'NONE', *, *, #86, .T. ) ;
#169 = DIRECTION ( 'NONE',  ( -0.000000000000000000, -0.000000000000000000, -1.000000000000000000 ) ) ;
#170 = EDGE_CURVE ( 'NONE', #35, #310, #128, .T. ) ;
#171 = ORIENTED_EDGE ( 'NONE', *, *, #157, .F. ) ;
#172 = ORIENTED_EDGE ( 'NONE', *, *, #210, .T. ) ;
#173 = DIRECTION ( 'NONE',  ( 1.000000000000000000, 0.000000000000000000, 0.000000000000000000 ) ) ;
#174 = FACE_OUTER_BOUND ( 'NONE', #36, .T. ) ;
#175 = ADVANCED_FACE ( 'NONE', ( #222, #77 ), #52, .F. ) ;
#176 = DIRECTION ( 'NONE',  ( -0.000000000000000000, -1.000000000000000000, 0.000000000000000000 ) ) ;
#177 = CARTESIAN_POINT ( 'NONE',  ( 3.125000000000000000, 3.125000000000000000, -0.04000000000000000083 ) ) ;
#178 =( GEOMETRIC_REPRESENTATION_CONTEXT ( 3 ) GLOBAL_UNCERTAINTY_ASSIGNED_CONTEXT ( ( #279 ) ) GLOBAL_UNIT_ASSIGNED_CONTEXT ( ( #232, #307, #5 ) ) REPRESENTATION_CONTEXT ( 'NONE', 'WORKASPACE' ) );
#179 = CARTESIAN_POINT ( 'NONE',  ( -3.125000000000000000, 3.125000000000000000, -0.04000000000000000083 ) ) ;
#180 = EDGE_CURVE ( 'NONE', #186, #186, #61, .T. ) ;
#181 = DIRECTION ( 'NONE',  ( 1.000000000000000000, 0.000000000000000000, 0.000000000000000000 ) ) ;
#182 = PRODUCT_DEFINITION_CONTEXT ( 'detailed design', #106, 'design' ) ;
#183 = CYLINDRICAL_SURFACE ( 'NONE', #95, 0.1249999999999999029 ) ;
#184 = CARTESIAN_POINT ( 'NONE',  ( -3.125000000000000000, 3.125000000000000000, 0.04000000000000000083 ) ) ;
#185 = ORIENTED_EDGE ( 'NONE', *, *, #243, .T. ) ;
#186 = VERTEX_POINT ( 'NONE', #108 ) ;
#187 = EDGE_LOOP ( 'NONE', ( #189 ) ) ;
#188 = SURFACE_STYLE_USAGE ( .BOTH. , #110 ) ;
#189 = ORIENTED_EDGE ( 'NONE', *, *, #270, .F. ) ;
#190 = VERTEX_POINT ( 'NONE', #64 ) ;
#191 = EDGE_LOOP ( 'NONE', ( #168 ) ) ;
#192 = CARTESIAN_POINT ( 'NONE',  ( 3.437500000000000000, -3.437500000000000000, 0.000000000000000000 ) ) ;
#193 = AXIS2_PLACEMENT_3D ( 'NONE', #306, #160, #326 ) ;
#194 = CARTESIAN_POINT ( 'NONE',  ( -3.437500000000000000, -3.437500000000000000, 0.000000000000000000 ) ) ;
#195 = DIRECTION ( 'NONE',  ( -0.000000000000000000, -0.000000000000000000, -1.000000000000000000 ) ) ;
#196 = DIRECTION ( 'NONE',  ( 0.000000000000000000, 0.000000000000000000, 1.000000000000000000 ) ) ;
#197 = AXIS2_PLACEMENT_3D ( 'NONE', #192, #292, #25 ) ;
#198 = LINE ( 'NONE', #273, #265 ) ;
#199 = EDGE_CURVE ( 'NONE', #135, #135, #205, .T. ) ;
#200 = FACE_BOUND ( 'NONE', #315, .T. ) ;
#201 = CARTESIAN_POINT ( 'NONE',  ( 3.437500000000000000, 3.437500000000000888, 0.04000000000000000083 ) ) ;
#202 = CARTESIAN_POINT ( 'NONE',  ( 3.437500000000000000, 3.437500000000000000, -0.04000000000000000083 ) ) ;
#203 = DIRECTION ( 'NONE',  ( -1.000000000000000000, -2.034481705827059785E-16, 0.000000000000000000 ) ) ;
#204 = PLANE ( 'NONE',  #193 ) ;
#205 = CIRCLE ( 'NONE', #153, 0.1249999999999999029 ) ;
#206 = FILL_AREA_STYLE_COLOUR ( '', #252 ) ;
#207 = EDGE_LOOP ( 'NONE', ( #165 ) ) ;
#208 = FILL_AREA_STYLE ('',( #206 ) ) ;
#209 = ORIENTED_EDGE ( 'NONE', *, *, #117, .T. ) ;
#210 = EDGE_CURVE ( 'NONE', #260, #260, #79, .T. ) ;
#211 = EDGE_LOOP ( 'NONE', ( #67 ) ) ;
#212 = AXIS2_PLACEMENT_3D ( 'NONE', #322, #196, #173 ) ;
#213 = ORIENTED_EDGE ( 'NONE', *, *, #157, .T. ) ;
#214 = EDGE_LOOP ( 'NONE', ( #88 ) ) ;
#215 = DIRECTION ( 'NONE',  ( 0.000000000000000000, 0.000000000000000000, 1.000000000000000000 ) ) ;
#216 = VECTOR ( 'NONE', #75, 39.37007874015748143 ) ;
#217 = FACE_OUTER_BOUND ( 'NONE', #284, .T. ) ;
#218 = DIRECTION ( 'NONE',  ( 1.000000000000000000, 0.000000000000000000, -0.000000000000000000 ) ) ;
#219 = CARTESIAN_POINT ( 'NONE',  ( 3.437500000000000000, 3.437500000000000000, 0.000000000000000000 ) ) ;
#220 = PLANE ( 'NONE',  #148 ) ;
#221 = DIRECTION ( 'NONE',  ( 1.000000000000000000, 0.000000000000000000, 0.000000000000000000 ) ) ;
#222 = FACE_OUTER_BOUND ( 'NONE', #207, .T. ) ;
#223 = ORIENTED_EDGE ( 'NONE', *, *, #48, .T. ) ;
#224 = LINE ( 'NONE', #278, #51 ) ;
#225 = FACE_BOUND ( 'NONE', #58, .T. ) ;
#226 = LINE ( 'NONE', #275, #10 ) ;
#227 = EDGE_CURVE ( 'NONE', #259, #161, #103, .T. ) ;
#228 = VERTEX_POINT ( 'NONE', #262 ) ;
#229 = ORIENTED_EDGE ( 'NONE', *, *, #170, .T. ) ;
#230 = VECTOR ( 'NONE', #297, 39.37007874015748143 ) ;
#231 = VECTOR ( 'NONE', #251, 39.37007874015748143 ) ;
#232 =( CONVERSION_BASED_UNIT ( 'INCH', #2 ) LENGTH_UNIT ( ) NAMED_UNIT ( #147 ) );
#233 = ORIENTED_EDGE ( 'NONE', *, *, #325, .T. ) ;
#234 = ADVANCED_FACE ( 'NONE', ( #50, #105 ), #183, .F. ) ;
#235 = EDGE_LOOP ( 'NONE', ( #255, #237, #256, #85 ) ) ;
#236 = CARTESIAN_POINT ( 'NONE',  ( -3.125000000000000000, -3.125000000000000000, 0.000000000000000000 ) ) ;
#237 = ORIENTED_EDGE ( 'NONE', *, *, #21, .F. ) ;
#238 = ORIENTED_EDGE ( 'NONE', *, *, #21, .T. ) ;
#239 = PLANE ( 'NONE',  #264 ) ;
#240 = CARTESIAN_POINT ( 'NONE',  ( 3.125000000000000000, 3.125000000000000000, 0.04000000000000000083 ) ) ;
#241 = VECTOR ( 'NONE', #129, 39.37007874015748143 ) ;
#242 = CARTESIAN_POINT ( 'NONE',  ( -3.496765431890259976E-16, -3.437500000000000000, 0.04000000000000000083 ) ) ;
#243 = EDGE_CURVE ( 'NONE', #167, #112, #101, .T. ) ;
#244 = LINE ( 'NONE', #299, #216 ) ;
#245 = DIRECTION ( 'NONE',  ( -1.000000000000000000, 0.000000000000000000, 0.000000000000000000 ) ) ;
#246 = CIRCLE ( 'NONE', #114, 0.1249999999999999029 ) ;
#247 = DIRECTION ( 'NONE',  ( -1.000000000000000000, -2.034481705827059785E-16, 0.000000000000000000 ) ) ;
#248 = ADVANCED_BREP_SHAPE_REPRESENTATION ( 'BP88A', ( #314, #30 ), #178 ) ;
#249 = LINE ( 'NONE', #131, #317 ) ;
#250 = DIRECTION ( 'NONE',  ( 0.000000000000000000, 0.000000000000000000, 1.000000000000000000 ) ) ;
#251 = DIRECTION ( 'NONE',  ( -0.000000000000000000, 1.000000000000000000, 0.000000000000000000 ) ) ;
#252 = COLOUR_RGB ( '',0.7921568627450980005, 0.8196078431372548767, 0.9333333333333333481 ) ;
#253 = CARTESIAN_POINT ( 'NONE',  ( 3.125000000000000000, 3.125000000000000000, 0.000000000000000000 ) ) ;
#254 = LENGTH_MEASURE_WITH_UNIT ( LENGTH_MEASURE( 0.02539999999999999897 ), #28 );
#255 = ORIENTED_EDGE ( 'NONE', *, *, #227, .T. ) ;
#256 = ORIENTED_EDGE ( 'NONE', *, *, #170, .F. ) ;
#257 = AXIS2_PLACEMENT_3D ( 'NONE', #240, #18, #318 ) ;
#258 = AXIS2_PLACEMENT_3D ( 'NONE', #301, #281, #203 ) ;
#259 = VERTEX_POINT ( 'NONE', #49 ) ;
#260 = VERTEX_POINT ( 'NONE', #162 ) ;
#261 = ORIENTED_EDGE ( 'NONE', *, *, #63, .F. ) ;
#262 = CARTESIAN_POINT ( 'NONE',  ( -3.000000000000000444, 3.125000000000000000, 0.04000000000000000083 ) ) ;
#263 = ORIENTED_EDGE ( 'NONE', *, *, #243, .F. ) ;
#264 = AXIS2_PLACEMENT_3D ( 'NONE', #94, #215, #218 ) ;
#265 = VECTOR ( 'NONE', #274, 39.37007874015748143 ) ;
#266 = PRODUCT_DEFINITION ( 'UNKNOWN', '', #323, #182 ) ;
#267 = FACE_BOUND ( 'NONE', #7, .T. ) ;
#268 = CARTESIAN_POINT ( 'NONE',  ( 3.437500000000000000, 3.437500000000001776, 0.000000000000000000 ) ) ;
#269 = CARTESIAN_POINT ( 'NONE',  ( 3.437500000000000888, -3.437500000000000000, 0.04000000000000000083 ) ) ;
#270 = EDGE_CURVE ( 'NONE', #59, #59, #276, .T. ) ;
#271 = ADVANCED_FACE ( 'NONE', ( #104 ), #300, .T. ) ;
#272 = VECTOR ( 'NONE', #150, 39.37007874015748143 ) ;
#273 = CARTESIAN_POINT ( 'NONE',  ( 3.437500000000000000, -3.437500000000000000, 0.000000000000000000 ) ) ;
#274 = DIRECTION ( 'NONE',  ( -0.000000000000000000, 0.000000000000000000, 1.000000000000000000 ) ) ;
#275 = CARTESIAN_POINT ( 'NONE',  ( -3.437500000000000000, 3.437500000000000000, -0.04000000000000000083 ) ) ;
#276 = CIRCLE ( 'NONE', #23, 0.1249999999999999029 ) ;
#277 = CARTESIAN_POINT ( 'NONE',  ( -3.125000000000000000, -3.125000000000000000, -0.04000000000000000083 ) ) ;
#278 = CARTESIAN_POINT ( 'NONE',  ( -3.437500000000000000, 3.437500000000000000, 0.000000000000000000 ) ) ;
#279 = UNCERTAINTY_MEASURE_WITH_UNIT (LENGTH_MEASURE( 1.000000000000000082E-05 ), #232, 'distance_accuracy_value', 'NONE');
#280 = DIRECTION ( 'NONE',  ( 1.000000000000000000, 0.000000000000000000, 0.000000000000000000 ) ) ;
#281 = DIRECTION ( 'NONE',  ( -2.034481705827059785E-16, 1.000000000000000000, 0.000000000000000000 ) ) ;
#282 = CLOSED_SHELL ( 'NONE', ( #291, #313, #33, #175, #234, #156, #60, #271, #93, #54 ) ) ;
#283 = VERTEX_POINT ( 'NONE', #89 ) ;
#284 = EDGE_LOOP ( 'NONE', ( #287 ) ) ;
#285 = EDGE_LOOP ( 'NONE', ( #111, #289, #229, #311 ) ) ;
#286 = PRESENTATION_STYLE_ASSIGNMENT (( #188 ) ) ;
#287 = ORIENTED_EDGE ( 'NONE', *, *, #210, .F. ) ;
#288 = VERTEX_POINT ( 'NONE', #107 ) ;
#289 = ORIENTED_EDGE ( 'NONE', *, *, #98, .T. ) ;
#290 = ORIENTED_EDGE ( 'NONE', *, *, #48, .F. ) ;
#291 = ADVANCED_FACE ( 'NONE', ( #200, #24, #130, #225, #152 ), #204, .T. ) ;
#292 = DIRECTION ( 'NONE',  ( -2.034481705827059785E-16, -1.000000000000000000, 0.000000000000000000 ) ) ;
#293 = AXIS2_PLACEMENT_3D ( 'NONE', #177, #250, #83 ) ;
#294 = LINE ( 'NONE', #100, #230 ) ;
#295 = EDGE_CURVE ( 'NONE', #309, #112, #249, .T. ) ;
#296 = DIRECTION ( 'NONE',  ( 1.000000000000000000, 1.017240852913529893E-16, 0.000000000000000000 ) ) ;
#297 = DIRECTION ( 'NONE',  ( 1.000000000000000000, -2.034481705827059785E-16, 0.000000000000000000 ) ) ;
#298 = VECTOR ( 'NONE', #154, 39.37007874015748143 ) ;
#299 = CARTESIAN_POINT ( 'NONE',  ( -3.496765431890259976E-16, 3.437500000000000000, 0.04000000000000000083 ) ) ;
#300 = PLANE ( 'NONE',  #258 ) ;
#301 = CARTESIAN_POINT ( 'NONE',  ( -3.437500000000000000, 3.437500000000000000, 0.000000000000000000 ) ) ;
#302 = CARTESIAN_POINT ( 'NONE',  ( 3.125000000000000000, -3.125000000000000000, 0.000000000000000000 ) ) ;
#303 = PRODUCT_RELATED_PRODUCT_CATEGORY ( 'part', '', ( #53 ) ) ;
#304 = DIRECTION ( 'NONE',  ( 1.000000000000000000, 0.000000000000000000, 0.000000000000000000 ) ) ;
#305 = EDGE_CURVE ( 'NONE', #161, #309, #226, .T. ) ;
#306 = CARTESIAN_POINT ( 'NONE',  ( -3.496765431890259976E-16, 1.748382715945129988E-16, 0.04000000000000000083 ) ) ;
#307 =( NAMED_UNIT ( * ) PLANE_ANGLE_UNIT ( ) SI_UNIT ( $, .RADIAN. ) );
#308 =( LENGTH_UNIT ( ) NAMED_UNIT ( * ) SI_UNIT ( $, .METRE. ) );
#309 = VERTEX_POINT ( 'NONE', #19 ) ;
#310 = VERTEX_POINT ( 'NONE', #201 ) ;
#311 = ORIENTED_EDGE ( 'NONE', *, *, #146, .T. ) ;
#312 = ORIENTED_EDGE ( 'NONE', *, *, #98, .F. ) ;
#313 = ADVANCED_FACE ( 'NONE', ( #47, #20 ), #132, .F. ) ;
#314 = MANIFOLD_SOLID_BREP ( 'Solid1', #282 ) ;
#315 = EDGE_LOOP ( 'NONE', ( #56 ) ) ;
#316 = ORIENTED_EDGE ( 'NONE', *, *, #305, .F. ) ;
#317 = VECTOR ( 'NONE', #176, 39.37007874015748143 ) ;
#318 = DIRECTION ( 'NONE',  ( 1.000000000000000000, 0.000000000000000000, 0.000000000000000000 ) ) ;
#319 = LINE ( 'NONE', #268, #140 ) ;
#320 = PRODUCT_DEFINITION_SHAPE ( 'NONE', 'NONE',  #266 ) ;
#321 = CARTESIAN_POINT ( 'NONE',  ( 0.000000000000000000, 0.000000000000000000, 0.000000000000000000 ) ) ;
#322 = CARTESIAN_POINT ( 'NONE',  ( 3.125000000000000000, -3.125000000000000000, -0.04000000000000000083 ) ) ;
#323 = PRODUCT_DEFINITION_FORMATION_WITH_SPECIFIED_SOURCE ( 'ANY', '', #53, .NOT_KNOWN. ) ;
#324 = PLANE ( 'NONE',  #197 ) ;
#325 = EDGE_CURVE ( 'NONE', #228, #228, #246, .T. ) ;
#326 = DIRECTION ( 'NONE',  ( 1.000000000000000000, 0.000000000000000000, -0.000000000000000000 ) ) ;
#327 = CARTESIAN_POINT ( 'NONE',  ( 3.437500000000000000, 1.748382715945129988E-16, 0.04000000000000000083 ) ) ;
#328 = VECTOR ( 'NONE', #39, 39.37007874015748143 ) ;
#329 = DIRECTION ( 'NONE',  ( 0.000000000000000000, 0.000000000000000000, 1.000000000000000000 ) ) ;
ENDSEC;
END-ISO-10303-21;
