ISO-10303-21;
HEADER;
FILE_DESCRIPTION (( 'STEP AP214' ),
    '1' );
FILE_NAME ('BP66ABS.STEP',
    '2023-12-20T19:32:15',
    ( '' ),
    ( '' ),
    'SwSTEP 2.0',
    'SolidWorks 2023',
    '' );
FILE_SCHEMA (( 'AUTOMOTIVE_DESIGN' ));
ENDSEC;

DATA;
#1 = CARTESIAN_POINT ( 'NONE',  ( 2.375000000000000000, 2.375000000000000000, -0.1150000000000000050 ) ) ;
#2 = DIRECTION ( 'NONE',  ( 1.000000000000000000, -2.208483430667530074E-16, 0.000000000000000000 ) ) ;
#3 = AXIS2_PLACEMENT_3D ( 'NONE', #81, #189, #293 ) ;
#4 = ADVANCED_FACE ( 'NONE', ( #226, #128 ), #304, .F. ) ;
#5 = CARTESIAN_POINT ( 'NONE',  ( -2.125000000000000000, 2.125000000000000000, 0.000000000000000000 ) ) ;
#6 = DIRECTION ( 'NONE',  ( 1.000000000000000000, 0.000000000000000000, -0.000000000000000000 ) ) ;
#7 = CARTESIAN_POINT ( 'NONE',  ( -2.375000000000000000, 2.375000000000000000, 0.000000000000000000 ) ) ;
#8 = AXIS2_PLACEMENT_3D ( 'NONE', #329, #327, #257 ) ;
#9 = DIRECTION ( 'NONE',  ( -0.000000000000000000, 1.000000000000000000, 0.000000000000000000 ) ) ;
#10 = LINE ( 'NONE', #113, #269 ) ;
#11 = EDGE_CURVE ( 'NONE', #199, #199, #153, .T. ) ;
#12 = VERTEX_POINT ( 'NONE', #1 ) ;
#13 = ORIENTED_EDGE ( 'NONE', *, *, #92, .F. ) ;
#14 = EDGE_LOOP ( 'NONE', ( #224 ) ) ;
#15 = AXIS2_PLACEMENT_3D ( 'NONE', #27, #132, #149 ) ;
#16 = ADVANCED_FACE ( 'NONE', ( #70, #310, #151, #52, #26 ), #103, .T. ) ;
#17 = ORIENTED_EDGE ( 'NONE', *, *, #198, .T. ) ;
#18 = EDGE_LOOP ( 'NONE', ( #319 ) ) ;
#19 =( NAMED_UNIT ( * ) PLANE_ANGLE_UNIT ( ) SI_UNIT ( $, .RADIAN. ) );
#20 = FACE_OUTER_BOUND ( 'NONE', #84, .T. ) ;
#21 = LINE ( 'NONE', #208, #165 ) ;
#22 = CARTESIAN_POINT ( 'NONE',  ( 2.249999999999999556, -2.125000000000000000, 0.1150000000000000050 ) ) ;
#23 = AXIS2_PLACEMENT_3D ( 'NONE', #46, #78, #182 ) ;
#24 = CARTESIAN_POINT ( 'NONE',  ( 2.375000000000000000, 2.375000000000000888, 0.000000000000000000 ) ) ;
#25 = DIRECTION ( 'NONE',  ( 0.000000000000000000, 0.000000000000000000, 1.000000000000000000 ) ) ;
#26 = FACE_OUTER_BOUND ( 'NONE', #67, .T. ) ;
#27 = CARTESIAN_POINT ( 'NONE',  ( 2.125000000000000000, -2.125000000000000000, 0.1150000000000000050 ) ) ;
#28 = PRODUCT_DEFINITION ( 'UNKNOWN', '', #290, #42 ) ;
#29 = CARTESIAN_POINT ( 'NONE',  ( 2.375000000000000000, -2.375000000000000000, 0.1150000000000000050 ) ) ;
#30 = AXIS2_PLACEMENT_3D ( 'NONE', #260, #129, #280 ) ;
#31 = DIRECTION ( 'NONE',  ( 0.000000000000000000, 0.000000000000000000, 1.000000000000000000 ) ) ;
#32 = DIMENSIONAL_EXPONENTS ( 1.000000000000000000, 0.000000000000000000, 0.000000000000000000, 0.000000000000000000, 0.000000000000000000, 0.000000000000000000, 0.000000000000000000 ) ;
#33 = ORIENTED_EDGE ( 'NONE', *, *, #259, .T. ) ;
#34 = AXIS2_PLACEMENT_3D ( 'NONE', #242, #100, #176 ) ;
#35 = ORIENTED_EDGE ( 'NONE', *, *, #175, .T. ) ;
#36 = EDGE_LOOP ( 'NONE', ( #166 ) ) ;
#37 = ORIENTED_EDGE ( 'NONE', *, *, #312, .F. ) ;
#38 = PRESENTATION_STYLE_ASSIGNMENT (( #276 ) ) ;
#39 = ADVANCED_FACE ( 'NONE', ( #207 ), #177, .T. ) ;
#40 = VERTEX_POINT ( 'NONE', #222 ) ;
#41 = VERTEX_POINT ( 'NONE', #76 ) ;
#42 = PRODUCT_DEFINITION_CONTEXT ( 'detailed design', #261, 'design' ) ;
#43 = CARTESIAN_POINT ( 'NONE',  ( 1.748382715945129988E-16, 2.375000000000000000, -0.1150000000000000050 ) ) ;
#44 = VECTOR ( 'NONE', #111, 39.37007874015748143 ) ;
#45 = ORIENTED_EDGE ( 'NONE', *, *, #11, .T. ) ;
#46 = CARTESIAN_POINT ( 'NONE',  ( -2.125000000000000000, -2.125000000000000000, 0.000000000000000000 ) ) ;
#47 =( GEOMETRIC_REPRESENTATION_CONTEXT ( 3 ) GLOBAL_UNCERTAINTY_ASSIGNED_CONTEXT ( ( #147 ) ) GLOBAL_UNIT_ASSIGNED_CONTEXT ( ( #170, #19, #68 ) ) REPRESENTATION_CONTEXT ( 'NONE', 'WORKASPACE' ) );
#48 = FACE_OUTER_BOUND ( 'NONE', #123, .T. ) ;
#49 = CARTESIAN_POINT ( 'NONE',  ( 2.249999999999999556, -2.125000000000000000, -0.1150000000000000050 ) ) ;
#50 = AXIS2_PLACEMENT_3D ( 'NONE', #308, #306, #73 ) ;
#51 = LINE ( 'NONE', #79, #88 ) ;
#52 = FACE_BOUND ( 'NONE', #118, .T. ) ;
#53 = EDGE_CURVE ( 'NONE', #122, #122, #256, .T. ) ;
#54 = CYLINDRICAL_SURFACE ( 'NONE', #220, 0.1249999999999999029 ) ;
#55 = AXIS2_PLACEMENT_3D ( 'NONE', #131, #232, #262 ) ;
#56 = CARTESIAN_POINT ( 'NONE',  ( 2.374999999999999556, -2.375000000000000000, 0.1150000000000000050 ) ) ;
#57 = EDGE_CURVE ( 'NONE', #87, #12, #205, .T. ) ;
#58 = LINE ( 'NONE', #138, #250 ) ;
#59 = EDGE_CURVE ( 'NONE', #40, #40, #196, .T. ) ;
#60 = DIRECTION ( 'NONE',  ( -0.000000000000000000, -0.000000000000000000, -1.000000000000000000 ) ) ;
#61 = ORIENTED_EDGE ( 'NONE', *, *, #53, .T. ) ;
#62 = ORIENTED_EDGE ( 'NONE', *, *, #11, .F. ) ;
#63 = VECTOR ( 'NONE', #6, 39.37007874015748143 ) ;
#64 = ORIENTED_EDGE ( 'NONE', *, *, #140, .T. ) ;
#65 = ORIENTED_EDGE ( 'NONE', *, *, #312, .T. ) ;
#66 = VERTEX_POINT ( 'NONE', #251 ) ;
#67 = EDGE_LOOP ( 'NONE', ( #244, #142, #267, #91 ) ) ;
#68 =( NAMED_UNIT ( * ) SI_UNIT ( $, .STERADIAN. ) SOLID_ANGLE_UNIT ( ) );
#69 = ADVANCED_FACE ( 'NONE', ( #20 ), #157, .T. ) ;
#70 = FACE_BOUND ( 'NONE', #163, .T. ) ;
#71 = SURFACE_STYLE_FILL_AREA ( #167 ) ;
#72 = CARTESIAN_POINT ( 'NONE',  ( -2.000000000000000000, -2.125000000000000000, 0.1150000000000000050 ) ) ;
#73 = DIRECTION ( 'NONE',  ( 1.000000000000000000, 0.000000000000000000, 0.000000000000000000 ) ) ;
#74 = FACE_OUTER_BOUND ( 'NONE', #14, .T. ) ;
#75 = AXIS2_PLACEMENT_3D ( 'NONE', #214, #190, #296 ) ;
#76 = CARTESIAN_POINT ( 'NONE',  ( -2.375000000000000000, 2.375000000000000000, 0.1150000000000000050 ) ) ;
#77 = DIRECTION ( 'NONE',  ( 1.000000000000000000, 0.000000000000000000, 0.000000000000000000 ) ) ;
#78 = DIRECTION ( 'NONE',  ( 0.000000000000000000, 0.000000000000000000, 1.000000000000000000 ) ) ;
#79 = CARTESIAN_POINT ( 'NONE',  ( 2.374999999999999556, -2.375000000000000000, 0.000000000000000000 ) ) ;
#80 = CARTESIAN_POINT ( 'NONE',  ( 2.375000000000000000, 2.375000000000000000, 0.000000000000000000 ) ) ;
#81 = CARTESIAN_POINT ( 'NONE',  ( -2.375000000000000000, 2.375000000000000000, 0.000000000000000000 ) ) ;
#82 = FACE_OUTER_BOUND ( 'NONE', #200, .T. ) ;
#83 = DIRECTION ( 'NONE',  ( 0.000000000000000000, 0.000000000000000000, 1.000000000000000000 ) ) ;
#84 = EDGE_LOOP ( 'NONE', ( #141, #195, #223, #203 ) ) ;
#85 = CIRCLE ( 'NONE', #134, 0.1249999999999999029 ) ;
#86 = EDGE_CURVE ( 'NONE', #173, #173, #185, .T. ) ;
#87 = VERTEX_POINT ( 'NONE', #283 ) ;
#88 = VECTOR ( 'NONE', #211, 39.37007874015748143 ) ;
#89 = ORIENTED_EDGE ( 'NONE', *, *, #140, .F. ) ;
#90 = CARTESIAN_POINT ( 'NONE',  ( -2.000000000000000000, 2.125000000000000000, 0.1150000000000000050 ) ) ;
#91 = ORIENTED_EDGE ( 'NONE', *, *, #259, .F. ) ;
#92 = EDGE_CURVE ( 'NONE', #318, #116, #174, .T. ) ;
#93 = FACE_BOUND ( 'NONE', #300, .T. ) ;
#94 = ORIENTED_EDGE ( 'NONE', *, *, #213, .F. ) ;
#95 = ADVANCED_BREP_SHAPE_REPRESENTATION ( 'BP66ABS', ( #241, #34 ), #47 ) ;
#96 = PRESENTATION_LAYER_ASSIGNMENT (  '', '', ( #209 ) ) ;
#97 = CARTESIAN_POINT ( 'NONE',  ( 1.748382715945129988E-16, 1.589438832677389918E-17, -0.1150000000000000050 ) ) ;
#98 = DIRECTION ( 'NONE',  ( -2.208483430667530074E-16, -1.000000000000000000, 0.000000000000000000 ) ) ;
#99 = CARTESIAN_POINT ( 'NONE',  ( 2.125000000000000000, 2.125000000000000000, -0.1150000000000000050 ) ) ;
#100 = DIRECTION ( 'NONE',  ( 0.000000000000000000, 0.000000000000000000, 1.000000000000000000 ) ) ;
#101 = CYLINDRICAL_SURFACE ( 'NONE', #23, 0.1249999999999999029 ) ;
#102 = CARTESIAN_POINT ( 'NONE',  ( -2.125000000000000000, 2.125000000000000000, -0.1150000000000000050 ) ) ;
#103 = PLANE ( 'NONE',  #105 ) ;
#104 = ADVANCED_FACE ( 'NONE', ( #106, #48 ), #101, .F. ) ;
#105 = AXIS2_PLACEMENT_3D ( 'NONE', #253, #234, #255 ) ;
#106 = FACE_OUTER_BOUND ( 'NONE', #143, .T. ) ;
#107 = DIRECTION ( 'NONE',  ( -0.000000000000000000, -0.000000000000000000, -1.000000000000000000 ) ) ;
#108 = DIRECTION ( 'NONE',  ( 0.000000000000000000, 0.000000000000000000, 1.000000000000000000 ) ) ;
#109 = AXIS2_PLACEMENT_3D ( 'NONE', #102, #178, #181 ) ;
#110 = LINE ( 'NONE', #114, #286 ) ;
#111 = DIRECTION ( 'NONE',  ( -0.000000000000000000, -0.000000000000000000, -1.000000000000000000 ) ) ;
#112 = VECTOR ( 'NONE', #156, 39.37007874015748143 ) ;
#113 = CARTESIAN_POINT ( 'NONE',  ( -2.375000000000000000, -2.375000000000000000, 0.1150000000000000050 ) ) ;
#114 = CARTESIAN_POINT ( 'NONE',  ( -2.375000000000000000, -2.375000000000000000, 0.000000000000000000 ) ) ;
#115 = APPLICATION_PROTOCOL_DEFINITION ( 'draft international standard', 'automotive_design', 1998, #261 ) ;
#116 = VERTEX_POINT ( 'NONE', #206 ) ;
#117 = EDGE_LOOP ( 'NONE', ( #268 ) ) ;
#118 = EDGE_LOOP ( 'NONE', ( #322 ) ) ;
#119 = AXIS2_PLACEMENT_3D ( 'NONE', #97, #83, #297 ) ;
#120 = ORIENTED_EDGE ( 'NONE', *, *, #59, .F. ) ;
#121 = COLOUR_RGB ( '',0.7921568627450980005, 0.8196078431372548767, 0.9333333333333333481 ) ;
#122 = VERTEX_POINT ( 'NONE', #72 ) ;
#123 = EDGE_LOOP ( 'NONE', ( #126 ) ) ;
#124 = ADVANCED_FACE ( 'NONE', ( #289, #74 ), #54, .F. ) ;
#125 = FACE_BOUND ( 'NONE', #36, .T. ) ;
#126 = ORIENTED_EDGE ( 'NONE', *, *, #86, .T. ) ;
#127 = CARTESIAN_POINT ( 'NONE',  ( -2.375000000000000000, 2.375000000000000000, -0.1150000000000000050 ) ) ;
#128 = FACE_OUTER_BOUND ( 'NONE', #216, .T. ) ;
#129 = DIRECTION ( 'NONE',  ( -0.000000000000000000, -0.000000000000000000, -1.000000000000000000 ) ) ;
#130 = DIRECTION ( 'NONE',  ( 1.000000000000000000, 0.000000000000000000, 0.000000000000000000 ) ) ;
#131 = CARTESIAN_POINT ( 'NONE',  ( -2.375000000000000000, -2.375000000000000000, 0.000000000000000000 ) ) ;
#132 = DIRECTION ( 'NONE',  ( -0.000000000000000000, -0.000000000000000000, -1.000000000000000000 ) ) ;
#133 = EDGE_CURVE ( 'NONE', #150, #150, #191, .T. ) ;
#134 = AXIS2_PLACEMENT_3D ( 'NONE', #277, #60, #202 ) ;
#135 = CARTESIAN_POINT ( 'NONE',  ( 2.375000000000000000, 1.589438832677389918E-17, -0.1150000000000000050 ) ) ;
#136 = DIRECTION ( 'NONE',  ( -1.000000000000000000, 2.208483430667530074E-16, -0.000000000000000000 ) ) ;
#137 = VECTOR ( 'NONE', #9, 39.37007874015748143 ) ;
#138 = CARTESIAN_POINT ( 'NONE',  ( 2.375000000000000000, 2.375000000000000000, 0.1150000000000000050 ) ) ;
#139 = ORIENTED_EDGE ( 'NONE', *, *, #53, .F. ) ;
#140 = EDGE_CURVE ( 'NONE', #168, #311, #51, .T. ) ;
#141 = ORIENTED_EDGE ( 'NONE', *, *, #92, .T. ) ;
#142 = ORIENTED_EDGE ( 'NONE', *, *, #233, .F. ) ;
#143 = EDGE_LOOP ( 'NONE', ( #139 ) ) ;
#144 = VECTOR ( 'NONE', #136, 39.37007874015748143 ) ;
#145 = LENGTH_MEASURE_WITH_UNIT ( LENGTH_MEASURE( 0.02539999999999999897 ), #193 );
#146 = EDGE_LOOP ( 'NONE', ( #320 ) ) ;
#147 = UNCERTAINTY_MEASURE_WITH_UNIT (LENGTH_MEASURE( 1.000000000000000082E-05 ), #170, 'distance_accuracy_value', 'NONE');
#148 = PLANE ( 'NONE',  #119 ) ;
#149 = DIRECTION ( 'NONE',  ( 1.000000000000000000, 0.000000000000000000, 0.000000000000000000 ) ) ;
#150 = VERTEX_POINT ( 'NONE', #22 ) ;
#151 = FACE_BOUND ( 'NONE', #249, .T. ) ;
#152 = ADVANCED_FACE ( 'NONE', ( #82, #215 ), #158, .F. ) ;
#153 = CIRCLE ( 'NONE', #8, 0.1249999999999999029 ) ;
#154 = CARTESIAN_POINT ( 'NONE',  ( 2.375000000000000000, -2.375000000000000000, 0.000000000000000000 ) ) ;
#155 = APPLICATION_CONTEXT ( 'automotive_design' ) ;
#156 = DIRECTION ( 'NONE',  ( -0.000000000000000000, -0.000000000000000000, -1.000000000000000000 ) ) ;
#157 = PLANE ( 'NONE',  #55 ) ;
#158 = CYLINDRICAL_SURFACE ( 'NONE', #75, 0.1249999999999999029 ) ;
#159 = LINE ( 'NONE', #239, #63 ) ;
#160 = FACE_OUTER_BOUND ( 'NONE', #298, .T. ) ;
#161 = AXIS2_PLACEMENT_3D ( 'NONE', #99, #107, #77 ) ;
#162 = CARTESIAN_POINT ( 'NONE',  ( -2.000000000000000000, 2.125000000000000000, -0.1150000000000000050 ) ) ;
#163 = EDGE_LOOP ( 'NONE', ( #61 ) ) ;
#164 = ORIENTED_EDGE ( 'NONE', *, *, #240, .T. ) ;
#165 = VECTOR ( 'NONE', #228, 39.37007874015748143 ) ;
#166 = ORIENTED_EDGE ( 'NONE', *, *, #271, .F. ) ;
#167 = FILL_AREA_STYLE ('',( #169 ) ) ;
#168 = VERTEX_POINT ( 'NONE', #56 ) ;
#169 = FILL_AREA_STYLE_COLOUR ( '', #121 ) ;
#170 =( CONVERSION_BASED_UNIT ( 'INCH', #145 ) LENGTH_UNIT ( ) NAMED_UNIT ( #264 ) );
#171 = ORIENTED_EDGE ( 'NONE', *, *, #271, .T. ) ;
#172 = CARTESIAN_POINT ( 'NONE',  ( -2.125000000000000000, -2.125000000000000000, 0.1150000000000000050 ) ) ;
#173 = VERTEX_POINT ( 'NONE', #282 ) ;
#174 = LINE ( 'NONE', #210, #237 ) ;
#175 = EDGE_CURVE ( 'NONE', #116, #311, #159, .T. ) ;
#176 = DIRECTION ( 'NONE',  ( 1.000000000000000000, 0.000000000000000000, 0.000000000000000000 ) ) ;
#177 = PLANE ( 'NONE',  #295 ) ;
#178 = DIRECTION ( 'NONE',  ( -0.000000000000000000, -0.000000000000000000, -1.000000000000000000 ) ) ;
#179 = AXIS2_PLACEMENT_3D ( 'NONE', #231, #25, #130 ) ;
#180 = DIRECTION ( 'NONE',  ( -0.000000000000000000, -0.000000000000000000, -1.000000000000000000 ) ) ;
#181 = DIRECTION ( 'NONE',  ( 1.000000000000000000, 0.000000000000000000, 0.000000000000000000 ) ) ;
#182 = DIRECTION ( 'NONE',  ( 1.000000000000000000, 0.000000000000000000, 0.000000000000000000 ) ) ;
#183 =( NAMED_UNIT ( * ) SI_UNIT ( $, .STERADIAN. ) SOLID_ANGLE_UNIT ( ) );
#184 = CIRCLE ( 'NONE', #109, 0.1249999999999999029 ) ;
#185 = CIRCLE ( 'NONE', #50, 0.1249999999999999029 ) ;
#186 = LINE ( 'NONE', #135, #137 ) ;
#187 = CARTESIAN_POINT ( 'NONE',  ( -2.375000000000000000, -2.374999999999999556, 0.1150000000000000050 ) ) ;
#188 = EDGE_CURVE ( 'NONE', #116, #219, #110, .T. ) ;
#189 = DIRECTION ( 'NONE',  ( -2.208483430667530074E-16, 1.000000000000000000, 0.000000000000000000 ) ) ;
#190 = DIRECTION ( 'NONE',  ( 0.000000000000000000, 0.000000000000000000, 1.000000000000000000 ) ) ;
#191 = CIRCLE ( 'NONE', #15, 0.1249999999999999029 ) ;
#192 = EDGE_CURVE ( 'NONE', #219, #41, #10, .T. ) ;
#193 =( LENGTH_UNIT ( ) NAMED_UNIT ( * ) SI_UNIT ( $, .METRE. ) );
#194 = ORIENTED_EDGE ( 'NONE', *, *, #328, .T. ) ;
#195 = ORIENTED_EDGE ( 'NONE', *, *, #188, .T. ) ;
#196 = CIRCLE ( 'NONE', #30, 0.1249999999999999029 ) ;
#197 = EDGE_LOOP ( 'NONE', ( #17, #275, #164, #64 ) ) ;
#198 = EDGE_CURVE ( 'NONE', #311, #12, #186, .T. ) ;
#199 = VERTEX_POINT ( 'NONE', #49 ) ;
#200 = EDGE_LOOP ( 'NONE', ( #120 ) ) ;
#201 = UNCERTAINTY_MEASURE_WITH_UNIT (LENGTH_MEASURE( 1.000000000000000082E-05 ), #272, 'distance_accuracy_value', 'NONE');
#202 = DIRECTION ( 'NONE',  ( 1.000000000000000000, 0.000000000000000000, 0.000000000000000000 ) ) ;
#203 = ORIENTED_EDGE ( 'NONE', *, *, #213, .T. ) ;
#204 = PRODUCT_CONTEXT ( 'NONE', #155, 'mechanical' ) ;
#205 = LINE ( 'NONE', #24, #112 ) ;
#206 = CARTESIAN_POINT ( 'NONE',  ( -2.375000000000000000, -2.374999999999999556, -0.1150000000000000050 ) ) ;
#207 = FACE_OUTER_BOUND ( 'NONE', #302, .T. ) ;
#208 = CARTESIAN_POINT ( 'NONE',  ( -2.375000000000000000, 2.375000000000000000, 0.1150000000000000050 ) ) ;
#209 = STYLED_ITEM ( 'NONE', ( #38 ), #241 ) ;
#210 = CARTESIAN_POINT ( 'NONE',  ( -2.375000000000000000, 1.589438832677389918E-17, -0.1150000000000000050 ) ) ;
#211 = DIRECTION ( 'NONE',  ( 0.000000000000000000, -0.000000000000000000, -1.000000000000000000 ) ) ;
#212 = CIRCLE ( 'NONE', #161, 0.1249999999999999029 ) ;
#213 = EDGE_CURVE ( 'NONE', #41, #318, #236, .T. ) ;
#214 = CARTESIAN_POINT ( 'NONE',  ( 2.125000000000000000, 2.125000000000000000, 0.000000000000000000 ) ) ;
#215 = FACE_OUTER_BOUND ( 'NONE', #324, .T. ) ;
#216 = EDGE_LOOP ( 'NONE', ( #45 ) ) ;
#217 = ORIENTED_EDGE ( 'NONE', *, *, #233, .T. ) ;
#218 = ADVANCED_FACE ( 'NONE', ( #315 ), #266, .T. ) ;
#219 = VERTEX_POINT ( 'NONE', #187 ) ;
#220 = AXIS2_PLACEMENT_3D ( 'NONE', #5, #108, #285 ) ;
#221 = LENGTH_MEASURE_WITH_UNIT ( LENGTH_MEASURE( 0.02539999999999999897 ), #281 );
#222 = CARTESIAN_POINT ( 'NONE',  ( 2.249999999999999556, 2.125000000000000000, 0.1150000000000000050 ) ) ;
#223 = ORIENTED_EDGE ( 'NONE', *, *, #192, .T. ) ;
#224 = ORIENTED_EDGE ( 'NONE', *, *, #294, .T. ) ;
#225 = APPLICATION_PROTOCOL_DEFINITION ( 'draft international standard', 'automotive_design', 1998, #155 ) ;
#226 = FACE_OUTER_BOUND ( 'NONE', #117, .T. ) ;
#227 = AXIS2_PLACEMENT_3D ( 'NONE', #172, #180, #287 ) ;
#228 = DIRECTION ( 'NONE',  ( 1.000000000000000000, 2.208483430667530074E-16, -0.000000000000000000 ) ) ;
#229 = SHAPE_DEFINITION_REPRESENTATION ( #248, #95 ) ;
#230 = DIRECTION ( 'NONE',  ( 0.000000000000000000, -1.000000000000000000, -0.000000000000000000 ) ) ;
#231 = CARTESIAN_POINT ( 'NONE',  ( 2.125000000000000000, -2.125000000000000000, 0.000000000000000000 ) ) ;
#232 = DIRECTION ( 'NONE',  ( -1.000000000000000000, 0.000000000000000000, 0.000000000000000000 ) ) ;
#233 = EDGE_CURVE ( 'NONE', #168, #219, #292, .T. ) ;
#234 = DIRECTION ( 'NONE',  ( 0.000000000000000000, 0.000000000000000000, 1.000000000000000000 ) ) ;
#235 = ADVANCED_FACE ( 'NONE', ( #160 ), #316, .T. ) ;
#236 = LINE ( 'NONE', #7, #44 ) ;
#237 = VECTOR ( 'NONE', #230, 39.37007874015748143 ) ;
#238 = DIRECTION ( 'NONE',  ( 1.000000000000000000, -7.361611435558440564E-17, 0.000000000000000000 ) ) ;
#239 = CARTESIAN_POINT ( 'NONE',  ( 1.748382715945129988E-16, -2.375000000000000000, -0.1150000000000000050 ) ) ;
#240 = EDGE_CURVE ( 'NONE', #87, #168, #58, .T. ) ;
#241 = MANIFOLD_SOLID_BREP ( 'Solid1', #326 ) ;
#242 = CARTESIAN_POINT ( 'NONE',  ( 0.000000000000000000, 0.000000000000000000, 0.000000000000000000 ) ) ;
#243 = ORIENTED_EDGE ( 'NONE', *, *, #294, .F. ) ;
#244 = ORIENTED_EDGE ( 'NONE', *, *, #192, .F. ) ;
#245 = EDGE_LOOP ( 'NONE', ( #243 ) ) ;
#246 = SURFACE_SIDE_STYLE ('',( #71 ) ) ;
#247 = ORIENTED_EDGE ( 'NONE', *, *, #188, .F. ) ;
#248 = PRODUCT_DEFINITION_SHAPE ( 'NONE', 'NONE',  #28 ) ;
#249 = EDGE_LOOP ( 'NONE', ( #270 ) ) ;
#250 = VECTOR ( 'NONE', #303, 39.37007874015748143 ) ;
#251 = CARTESIAN_POINT ( 'NONE',  ( 2.249999999999999556, 2.125000000000000000, -0.1150000000000000050 ) ) ;
#252 = EDGE_LOOP ( 'NONE', ( #194 ) ) ;
#253 = CARTESIAN_POINT ( 'NONE',  ( 1.748382715945129988E-16, 0.000000000000000000, 0.1150000000000000050 ) ) ;
#254 = FACE_BOUND ( 'NONE', #245, .T. ) ;
#255 = DIRECTION ( 'NONE',  ( 1.000000000000000000, 0.000000000000000000, -0.000000000000000000 ) ) ;
#256 = CIRCLE ( 'NONE', #227, 0.1249999999999999029 ) ;
#257 = DIRECTION ( 'NONE',  ( 1.000000000000000000, 0.000000000000000000, 0.000000000000000000 ) ) ;
#258 = PRODUCT ( 'BP66ABS', 'BP66ABS', '', ( #204 ) ) ;
#259 = EDGE_CURVE ( 'NONE', #41, #87, #21, .T. ) ;
#260 = CARTESIAN_POINT ( 'NONE',  ( 2.125000000000000000, 2.125000000000000000, 0.1150000000000000050 ) ) ;
#261 = APPLICATION_CONTEXT ( 'automotive_design' ) ;
#262 = DIRECTION ( 'NONE',  ( 0.000000000000000000, 0.000000000000000000, 1.000000000000000000 ) ) ;
#263 = DIRECTION ( 'NONE',  ( 7.361611435558440564E-17, 1.000000000000000000, 0.000000000000000000 ) ) ;
#264 = DIMENSIONAL_EXPONENTS ( 1.000000000000000000, 0.000000000000000000, 0.000000000000000000, 0.000000000000000000, 0.000000000000000000, 0.000000000000000000, 0.000000000000000000 ) ;
#265 = AXIS2_PLACEMENT_3D ( 'NONE', #80, #238, #263 ) ;
#266 = PLANE ( 'NONE',  #265 ) ;
#267 = ORIENTED_EDGE ( 'NONE', *, *, #240, .F. ) ;
#268 = ORIENTED_EDGE ( 'NONE', *, *, #133, .F. ) ;
#269 = VECTOR ( 'NONE', #313, 39.37007874015748143 ) ;
#270 = ORIENTED_EDGE ( 'NONE', *, *, #59, .T. ) ;
#271 = EDGE_CURVE ( 'NONE', #66, #66, #212, .T. ) ;
#272 =( CONVERSION_BASED_UNIT ( 'INCH', #221 ) LENGTH_UNIT ( ) NAMED_UNIT ( #32 ) );
#273 = ORIENTED_EDGE ( 'NONE', *, *, #57, .T. ) ;
#274 = VECTOR ( 'NONE', #317, 39.37007874015748143 ) ;
#275 = ORIENTED_EDGE ( 'NONE', *, *, #57, .F. ) ;
#276 = SURFACE_STYLE_USAGE ( .BOTH. , #246 ) ;
#277 = CARTESIAN_POINT ( 'NONE',  ( -2.125000000000000000, 2.125000000000000000, 0.1150000000000000050 ) ) ;
#278 = ORIENTED_EDGE ( 'NONE', *, *, #175, .F. ) ;
#279 =( NAMED_UNIT ( * ) PLANE_ANGLE_UNIT ( ) SI_UNIT ( $, .RADIAN. ) );
#280 = DIRECTION ( 'NONE',  ( 1.000000000000000000, 0.000000000000000000, 0.000000000000000000 ) ) ;
#281 =( LENGTH_UNIT ( ) NAMED_UNIT ( * ) SI_UNIT ( $, .METRE. ) );
#282 = CARTESIAN_POINT ( 'NONE',  ( -2.000000000000000000, -2.125000000000000000, -0.1150000000000000050 ) ) ;
#283 = CARTESIAN_POINT ( 'NONE',  ( 2.375000000000000000, 2.375000000000000000, 0.1150000000000000050 ) ) ;
#284 = VERTEX_POINT ( 'NONE', #90 ) ;
#285 = DIRECTION ( 'NONE',  ( 1.000000000000000000, 0.000000000000000000, 0.000000000000000000 ) ) ;
#286 = VECTOR ( 'NONE', #31, 39.37007874015748143 ) ;
#287 = DIRECTION ( 'NONE',  ( 1.000000000000000000, 0.000000000000000000, 0.000000000000000000 ) ) ;
#288 = CARTESIAN_POINT ( 'NONE',  ( 2.374999999999999556, -2.375000000000000000, -0.1150000000000000050 ) ) ;
#289 = FACE_OUTER_BOUND ( 'NONE', #18, .T. ) ;
#290 = PRODUCT_DEFINITION_FORMATION_WITH_SPECIFIED_SOURCE ( 'ANY', '', #258, .NOT_KNOWN. ) ;
#291 = MECHANICAL_DESIGN_GEOMETRIC_PRESENTATION_REPRESENTATION (  '', ( #209 ), #314 ) ;
#292 = LINE ( 'NONE', #29, #144 ) ;
#293 = DIRECTION ( 'NONE',  ( -1.000000000000000000, -2.208483430667530074E-16, 0.000000000000000000 ) ) ;
#294 = EDGE_CURVE ( 'NONE', #321, #321, #184, .T. ) ;
#295 = AXIS2_PLACEMENT_3D ( 'NONE', #154, #98, #2 ) ;
#296 = DIRECTION ( 'NONE',  ( 1.000000000000000000, 0.000000000000000000, 0.000000000000000000 ) ) ;
#297 = DIRECTION ( 'NONE',  ( 1.000000000000000000, 0.000000000000000000, -0.000000000000000000 ) ) ;
#298 = EDGE_LOOP ( 'NONE', ( #65, #94, #33, #273 ) ) ;
#299 = ORIENTED_EDGE ( 'NONE', *, *, #198, .F. ) ;
#300 = EDGE_LOOP ( 'NONE', ( #62 ) ) ;
#301 = EDGE_LOOP ( 'NONE', ( #37, #299, #278, #13 ) ) ;
#302 = EDGE_LOOP ( 'NONE', ( #35, #89, #217, #247 ) ) ;
#303 = DIRECTION ( 'NONE',  ( -7.361611435558440564E-17, -1.000000000000000000, -0.000000000000000000 ) ) ;
#304 = CYLINDRICAL_SURFACE ( 'NONE', #179, 0.1249999999999999029 ) ;
#305 = FACE_BOUND ( 'NONE', #146, .T. ) ;
#306 = DIRECTION ( 'NONE',  ( -0.000000000000000000, -0.000000000000000000, -1.000000000000000000 ) ) ;
#307 = FACE_OUTER_BOUND ( 'NONE', #301, .T. ) ;
#308 = CARTESIAN_POINT ( 'NONE',  ( -2.125000000000000000, -2.125000000000000000, -0.1150000000000000050 ) ) ;
#309 = PRODUCT_RELATED_PRODUCT_CATEGORY ( 'part', '', ( #258 ) ) ;
#310 = FACE_BOUND ( 'NONE', #252, .T. ) ;
#311 = VERTEX_POINT ( 'NONE', #288 ) ;
#312 = EDGE_CURVE ( 'NONE', #12, #318, #325, .T. ) ;
#313 = DIRECTION ( 'NONE',  ( 0.000000000000000000, 1.000000000000000000, -0.000000000000000000 ) ) ;
#314 =( GEOMETRIC_REPRESENTATION_CONTEXT ( 3 ) GLOBAL_UNCERTAINTY_ASSIGNED_CONTEXT ( ( #201 ) ) GLOBAL_UNIT_ASSIGNED_CONTEXT ( ( #272, #279, #183 ) ) REPRESENTATION_CONTEXT ( 'NONE', 'WORKASPACE' ) );
#315 = FACE_OUTER_BOUND ( 'NONE', #197, .T. ) ;
#316 = PLANE ( 'NONE',  #3 ) ;
#317 = DIRECTION ( 'NONE',  ( -1.000000000000000000, -0.000000000000000000, 0.000000000000000000 ) ) ;
#318 = VERTEX_POINT ( 'NONE', #127 ) ;
#319 = ORIENTED_EDGE ( 'NONE', *, *, #328, .F. ) ;
#320 = ORIENTED_EDGE ( 'NONE', *, *, #86, .F. ) ;
#321 = VERTEX_POINT ( 'NONE', #162 ) ;
#322 = ORIENTED_EDGE ( 'NONE', *, *, #133, .T. ) ;
#323 = ADVANCED_FACE ( 'NONE', ( #305, #254, #125, #93, #307 ), #148, .F. ) ;
#324 = EDGE_LOOP ( 'NONE', ( #171 ) ) ;
#325 = LINE ( 'NONE', #43, #274 ) ;
#326 = CLOSED_SHELL ( 'NONE', ( #323, #104, #124, #152, #4, #69, #235, #218, #39, #16 ) ) ;
#327 = DIRECTION ( 'NONE',  ( -0.000000000000000000, -0.000000000000000000, -1.000000000000000000 ) ) ;
#328 = EDGE_CURVE ( 'NONE', #284, #284, #85, .T. ) ;
#329 = CARTESIAN_POINT ( 'NONE',  ( 2.125000000000000000, -2.125000000000000000, -0.1150000000000000050 ) ) ;
ENDSEC;
END-ISO-10303-21;
