ISO-10303-21;
HEADER;
FILE_DESCRIPTION (( 'STEP AP203' ),
    '1' );
FILE_NAME ('BP2424ABS_Default.step',
    '2023-12-20T19:43:56',
    ( 'Windows User' ),
    ( 'AUTOMATION DIRECT' ),
    'SwSTEP 2.0',
    'SolidWorks 2023',
    '' );
FILE_SCHEMA (( 'CONFIG_CONTROL_DESIGN' ));
ENDSEC;

DATA;
#1 = CARTESIAN_POINT ( 'NONE',  ( -11.37500000000000000, -11.37500000000000000, -0.1150000000000000050 ) ) ;
#2 = FACE_BOUND ( 'NONE', #280, .T. ) ;
#3 = CARTESIAN_POINT ( 'NONE',  ( 11.37500000000000000, -11.37500000000000000, 0.000000000000000000 ) ) ;
#4 = APPROVAL_PERSON_ORGANIZATION ( #271, #351, #178 ) ;
#5 = ORIENTED_EDGE ( 'NONE', *, *, #164, .F. ) ;
#6 = COORDINATED_UNIVERSAL_TIME_OFFSET ( 5, 0, .BEHIND. ) ;
#7 = VERTEX_POINT ( 'NONE', #22 ) ;
#8 = ORIENTED_EDGE ( 'NONE', *, *, #206, .F. ) ;
#9 = PERSON_AND_ORGANIZATION_ROLE ( 'creator' ) ;
#10 = CARTESIAN_POINT ( 'NONE',  ( -11.37500000000000000, -11.37500000000000000, 0.1150000000000000050 ) ) ;
#11 = CALENDAR_DATE ( 2023, 20, 12 ) ;
#12 = CARTESIAN_POINT ( 'NONE',  ( -11.12499999999999822, 11.12499999999999822, 0.1150000000000000050 ) ) ;
#13 = ORIENTED_EDGE ( 'NONE', *, *, #148, .F. ) ;
#14 = DIRECTION ( 'NONE',  ( 0.000000000000000000, 0.000000000000000000, 1.000000000000000000 ) ) ;
#15 = LOCAL_TIME ( 14, 43, 56.00000000000000000, #33 ) ;
#16 = CARTESIAN_POINT ( 'NONE',  ( -11.37500000000000000, 11.37500000000000000, -0.1150000000000000050 ) ) ;
#17 = ORIENTED_EDGE ( 'NONE', *, *, #206, .T. ) ;
#18 = DIRECTION ( 'NONE',  ( -0.000000000000000000, -0.000000000000000000, -1.000000000000000000 ) ) ;
#19 = ORIENTED_EDGE ( 'NONE', *, *, #190, .T. ) ;
#20 = ORIENTED_EDGE ( 'NONE', *, *, #371, .T. ) ;
#21 = DIRECTION ( 'NONE',  ( 1.000000000000000000, 0.000000000000000000, -0.000000000000000000 ) ) ;
#22 = CARTESIAN_POINT ( 'NONE',  ( 11.37500000000000000, -11.37500000000000000, 0.1150000000000000050 ) ) ;
#23 = VECTOR ( 'NONE', #367, 39.37007874015748143 ) ;
#24 = DIRECTION ( 'NONE',  ( 0.000000000000000000, 0.000000000000000000, 1.000000000000000000 ) ) ;
#25 = DIRECTION ( 'NONE',  ( 1.000000000000000000, 0.000000000000000000, 0.000000000000000000 ) ) ;
#26 = CARTESIAN_POINT ( 'NONE',  ( 11.12499999999999822, -11.12499999999999822, -0.1150000000000000050 ) ) ;
#27 = FACE_OUTER_BOUND ( 'NONE', #46, .T. ) ;
#28 = CARTESIAN_POINT ( 'NONE',  ( -11.37500000000000000, -11.37500000000000000, 0.1150000000000000050 ) ) ;
#29 = EDGE_CURVE ( 'NONE', #232, #7, #247, .T. ) ;
#30 = ORIENTED_EDGE ( 'NONE', *, *, #322, .T. ) ;
#31 = APPROVAL_STATUS ( 'not_yet_approved' ) ;
#32 = CARTESIAN_POINT ( 'NONE',  ( 0.000000000000000000, 0.000000000000000000, 0.000000000000000000 ) ) ;
#33 = COORDINATED_UNIVERSAL_TIME_OFFSET ( 5, 0, .BEHIND. ) ;
#34 = PERSON_AND_ORGANIZATION ( #126, #174 ) ;
#35 = AXIS2_PLACEMENT_3D ( 'NONE', #32, #154, #234 ) ;
#36 = ADVANCED_FACE ( 'NONE', ( #288 ), #185, .T. ) ;
#37 = APPROVAL_DATE_TIME ( #260, #64 ) ;
#38 = AXIS2_PLACEMENT_3D ( 'NONE', #110, #289, #205 ) ;
#39 = LINE ( 'NONE', #361, #65 ) ;
#40 = DIRECTION ( 'NONE',  ( 1.000000000000000000, 0.000000000000000000, 0.000000000000000000 ) ) ;
#41 =( NAMED_UNIT ( * ) PLANE_ANGLE_UNIT ( ) SI_UNIT ( $, .RADIAN. ) );
#42 = EDGE_LOOP ( 'NONE', ( #123, #74, #310, #211 ) ) ;
#43 = CARTESIAN_POINT ( 'NONE',  ( -11.37500000000000000, -11.37500000000000000, 0.000000000000000000 ) ) ;
#44 = APPROVAL ( #266, 'UNSPECIFIED' ) ;
#45 = CARTESIAN_POINT ( 'NONE',  ( 11.37499999999999822, -11.37500000000000000, 0.000000000000000000 ) ) ;
#46 = EDGE_LOOP ( 'NONE', ( #13, #337, #217, #76 ) ) ;
#47 = CARTESIAN_POINT ( 'NONE',  ( -6.993530863780510092E-16, 1.049029629567079916E-15, -0.1150000000000000050 ) ) ;
#48 = ORIENTED_EDGE ( 'NONE', *, *, #347, .T. ) ;
#49 = EDGE_LOOP ( 'NONE', ( #273, #284, #261, #5 ) ) ;
#50 = CARTESIAN_POINT ( 'NONE',  ( 11.12499999999999822, 11.12499999999999822, 0.000000000000000000 ) ) ;
#51 = DIRECTION ( 'NONE',  ( 1.000000000000000000, 0.000000000000000000, 0.000000000000000000 ) ) ;
#52 = CARTESIAN_POINT ( 'NONE',  ( 11.37500000000000000, 1.049029629567079916E-15, -0.1150000000000000050 ) ) ;
#53 = DIRECTION ( 'NONE',  ( 0.000000000000000000, 0.000000000000000000, 1.000000000000000000 ) ) ;
#54 = CARTESIAN_POINT ( 'NONE',  ( 11.37500000000000000, -11.37500000000000000, -0.1150000000000000050 ) ) ;
#55 = DIMENSIONAL_EXPONENTS ( 1.000000000000000000, 0.000000000000000000, 0.000000000000000000, 0.000000000000000000, 0.000000000000000000, 0.000000000000000000, 0.000000000000000000 ) ;
#56 = AXIS2_PLACEMENT_3D ( 'NONE', #366, #53, #309 ) ;
#57 = DIRECTION ( 'NONE',  ( 1.000000000000000000, 0.000000000000000000, -0.000000000000000000 ) ) ;
#58 = CIRCLE ( 'NONE', #201, 0.1249999999999993477 ) ;
#59 = APPROVAL_DATE_TIME ( #61, #351 ) ;
#60 = PERSON_AND_ORGANIZATION_ROLE ( 'design_supplier' ) ;
#61 = DATE_AND_TIME ( #327, #129 ) ;
#62 = LINE ( 'NONE', #10, #241 ) ;
#63 = ORIENTED_EDGE ( 'NONE', *, *, #228, .F. ) ;
#64 = APPROVAL ( #183, 'UNSPECIFIED' ) ;
#65 = VECTOR ( 'NONE', #346, 39.37007874015748143 ) ;
#66 = DIRECTION ( 'NONE',  ( -1.000000000000000000, -2.459263600450290179E-16, 0.000000000000000000 ) ) ;
#67 = CARTESIAN_POINT ( 'NONE',  ( 11.24999999999999822, 11.12499999999999822, -0.1150000000000000050 ) ) ;
#68 = EDGE_LOOP ( 'NONE', ( #282 ) ) ;
#69 = DIRECTION ( 'NONE',  ( -2.459263600450290179E-16, 1.000000000000000000, 0.000000000000000000 ) ) ;
#70 = VERTEX_POINT ( 'NONE', #191 ) ;
#71 = FACE_BOUND ( 'NONE', #68, .T. ) ;
#72 = CARTESIAN_POINT ( 'NONE',  ( 11.37500000000000000, 11.37500000000000178, -0.1150000000000000050 ) ) ;
#73 = AXIS2_PLACEMENT_3D ( 'NONE', #270, #69, #66 ) ;
#74 = ORIENTED_EDGE ( 'NONE', *, *, #86, .F. ) ;
#75 = DIRECTION ( 'NONE',  ( -0.000000000000000000, -0.000000000000000000, -1.000000000000000000 ) ) ;
#76 = ORIENTED_EDGE ( 'NONE', *, *, #285, .F. ) ;
#77 = CYLINDRICAL_SURFACE ( 'NONE', #97, 0.1249999999999993477 ) ;
#78 = CC_DESIGN_DATE_AND_TIME_ASSIGNMENT ( #124, #262, ( #179 ) ) ;
#79 = CYLINDRICAL_SURFACE ( 'NONE', #38, 0.1249999999999993477 ) ;
#80 = PLANE ( 'NONE',  #321 ) ;
#81 = FACE_BOUND ( 'NONE', #162, .T. ) ;
#82 = PRODUCT_DEFINITION_SHAPE ( 'NONE', 'NONE',  #239 ) ;
#83 = FACE_OUTER_BOUND ( 'NONE', #357, .T. ) ;
#84 =( GEOMETRIC_REPRESENTATION_CONTEXT ( 3 ) GLOBAL_UNCERTAINTY_ASSIGNED_CONTEXT ( ( #257 ) ) GLOBAL_UNIT_ASSIGNED_CONTEXT ( ( #92, #41, #158 ) ) REPRESENTATION_CONTEXT ( 'NONE', 'WORKASPACE' ) );
#85 = AXIS2_PLACEMENT_3D ( 'NONE', #375, #130, #333 ) ;
#86 = EDGE_CURVE ( 'NONE', #277, #326, #39, .T. ) ;
#87 = ORIENTED_EDGE ( 'NONE', *, *, #117, .F. ) ;
#88 = ADVANCED_BREP_SHAPE_REPRESENTATION ( 'BP2424ABS_Default', ( #111, #35 ), #84 ) ;
#89 = DATE_AND_TIME ( #325, #212 ) ;
#90 = VERTEX_POINT ( 'NONE', #1 ) ;
#91 = DATE_TIME_ROLE ( 'creation_date' ) ;
#92 =( CONVERSION_BASED_UNIT ( 'INCH', #305 ) LENGTH_UNIT ( ) NAMED_UNIT ( #55 ) );
#93 = EDGE_LOOP ( 'NONE', ( #249 ) ) ;
#94 = EDGE_CURVE ( 'NONE', #107, #356, #343, .T. ) ;
#95 = PERSON_AND_ORGANIZATION ( #126, #174 ) ;
#96 = ORIENTED_EDGE ( 'NONE', *, *, #322, .F. ) ;
#97 = AXIS2_PLACEMENT_3D ( 'NONE', #200, #314, #51 ) ;
#98 = VERTEX_POINT ( 'NONE', #152 ) ;
#99 = VERTEX_POINT ( 'NONE', #28 ) ;
#100 = CARTESIAN_POINT ( 'NONE',  ( -11.37500000000000000, 11.37500000000000000, 0.1150000000000000050 ) ) ;
#101 = CARTESIAN_POINT ( 'NONE',  ( -11.12499999999999822, -11.12499999999999822, -0.1150000000000000050 ) ) ;
#102 = EDGE_LOOP ( 'NONE', ( #238 ) ) ;
#103 = FACE_BOUND ( 'NONE', #364, .T. ) ;
#104 = AXIS2_PLACEMENT_3D ( 'NONE', #12, #240, #127 ) ;
#105 = CIRCLE ( 'NONE', #320, 0.1249999999999993477 ) ;
#106 = ADVANCED_FACE ( 'NONE', ( #172, #142 ), #79, .F. ) ;
#107 = VERTEX_POINT ( 'NONE', #54 ) ;
#108 = LINE ( 'NONE', #213, #293 ) ;
#109 = DIRECTION ( 'NONE',  ( -0.000000000000000000, -0.000000000000000000, -1.000000000000000000 ) ) ;
#110 = CARTESIAN_POINT ( 'NONE',  ( 11.12499999999999822, -11.12499999999999822, 0.000000000000000000 ) ) ;
#111 = MANIFOLD_SOLID_BREP ( 'Solid1', #258 ) ;
#112 = CARTESIAN_POINT ( 'NONE',  ( -6.993530863780510092E-16, 1.144395959527719977E-15, 0.1150000000000000050 ) ) ;
#113 = DIRECTION ( 'NONE',  ( -1.229631800225150020E-16, -1.000000000000000000, 0.000000000000000000 ) ) ;
#114 = ORIENTED_EDGE ( 'NONE', *, *, #368, .T. ) ;
#115 = CC_DESIGN_APPROVAL ( #44, ( #239 ) ) ;
#116 = EDGE_LOOP ( 'NONE', ( #8 ) ) ;
#117 = EDGE_CURVE ( 'NONE', #355, #355, #153, .T. ) ;
#118 = APPROVAL_DATE_TIME ( #233, #44 ) ;
#119 = CALENDAR_DATE ( 2023, 20, 12 ) ;
#120 = APPLICATION_PROTOCOL_DEFINITION ( 'international standard', 'config_control_design', 1994, #197 ) ;
#121 = CC_DESIGN_DATE_AND_TIME_ASSIGNMENT ( #89, #91, ( #239 ) ) ;
#122 =( LENGTH_UNIT ( ) NAMED_UNIT ( * ) SI_UNIT ( $, .METRE. ) );
#123 = ORIENTED_EDGE ( 'NONE', *, *, #148, .T. ) ;
#124 = DATE_AND_TIME ( #295, #15 ) ;
#125 = APPLICATION_PROTOCOL_DEFINITION ( 'international standard', 'config_control_design', 1994, #335 ) ;
#126 = PERSON ( 'UNSPECIFIED', 'UNSPECIFIED', 'UNSPECIFIED', ('UNSPECIFIED'), ('UNSPECIFIED'), ('UNSPECIFIED') ) ;
#127 = DIRECTION ( 'NONE',  ( 1.000000000000000000, 0.000000000000000000, 0.000000000000000000 ) ) ;
#128 = EDGE_LOOP ( 'NONE', ( #308 ) ) ;
#129 = LOCAL_TIME ( 14, 43, 56.00000000000000000, #6 ) ;
#130 = DIRECTION ( 'NONE',  ( 1.000000000000000000, -1.229631800225150020E-16, 0.000000000000000000 ) ) ;
#131 = LINE ( 'NONE', #243, #23 ) ;
#132 = EDGE_LOOP ( 'NONE', ( #207 ) ) ;
#133 = FACE_OUTER_BOUND ( 'NONE', #235, .T. ) ;
#134 = ORIENTED_EDGE ( 'NONE', *, *, #86, .T. ) ;
#135 = DIRECTION ( 'NONE',  ( 0.000000000000000000, 0.000000000000000000, 1.000000000000000000 ) ) ;
#136 = LOCAL_TIME ( 14, 43, 56.00000000000000000, #181 ) ;
#137 = CARTESIAN_POINT ( 'NONE',  ( 11.37500000000000000, 11.37500000000000000, 0.1150000000000000050 ) ) ;
#138 = ADVANCED_FACE ( 'NONE', ( #83 ), #202, .T. ) ;
#139 = CARTESIAN_POINT ( 'NONE',  ( -11.12499999999999822, 11.12499999999999822, -0.1150000000000000050 ) ) ;
#140 = DIRECTION ( 'NONE',  ( 1.000000000000000000, 0.000000000000000000, 0.000000000000000000 ) ) ;
#141 = ADVANCED_FACE ( 'NONE', ( #170, #166 ), #294, .F. ) ;
#142 = FACE_OUTER_BOUND ( 'NONE', #189, .T. ) ;
#143 = AXIS2_PLACEMENT_3D ( 'NONE', #344, #171, #161 ) ;
#144 = CARTESIAN_POINT ( 'NONE',  ( -11.37500000000000000, 11.37500000000000000, 0.1150000000000000050 ) ) ;
#145 = ORIENTED_EDGE ( 'NONE', *, *, #117, .T. ) ;
#146 = EDGE_CURVE ( 'NONE', #331, #331, #105, .T. ) ;
#147 = AXIS2_PLACEMENT_3D ( 'NONE', #224, #222, #140 ) ;
#148 = EDGE_CURVE ( 'NONE', #356, #326, #175, .T. ) ;
#149 = VERTEX_POINT ( 'NONE', #188 ) ;
#150 = ADVANCED_FACE ( 'NONE', ( #227, #81, #2, #318, #292 ), #290, .T. ) ;
#151 = PERSON_AND_ORGANIZATION ( #126, #174 ) ;
#152 = CARTESIAN_POINT ( 'NONE',  ( -11.00000000000000000, -11.12499999999999822, -0.1150000000000000050 ) ) ;
#153 = CIRCLE ( 'NONE', #147, 0.1249999999999993477 ) ;
#154 = DIRECTION ( 'NONE',  ( 0.000000000000000000, 0.000000000000000000, 1.000000000000000000 ) ) ;
#155 = ORIENTED_EDGE ( 'NONE', *, *, #312, .F. ) ;
#156 = EDGE_CURVE ( 'NONE', #274, #274, #173, .T. ) ;
#157 = DIRECTION ( 'NONE',  ( -0.000000000000000000, -0.000000000000000000, -1.000000000000000000 ) ) ;
#158 =( NAMED_UNIT ( * ) SI_UNIT ( $, .STERADIAN. ) SOLID_ANGLE_UNIT ( ) );
#159 = ORIENTED_EDGE ( 'NONE', *, *, #156, .F. ) ;
#160 = DIRECTION ( 'NONE',  ( 0.000000000000000000, 0.000000000000000000, 1.000000000000000000 ) ) ;
#161 = DIRECTION ( 'NONE',  ( 1.000000000000000000, 0.000000000000000000, 0.000000000000000000 ) ) ;
#162 = EDGE_LOOP ( 'NONE', ( #114 ) ) ;
#163 = DIRECTION ( 'NONE',  ( 0.000000000000000000, -0.000000000000000000, -1.000000000000000000 ) ) ;
#164 = EDGE_CURVE ( 'NONE', #277, #232, #221, .T. ) ;
#165 = ORIENTED_EDGE ( 'NONE', *, *, #285, .T. ) ;
#166 = FACE_OUTER_BOUND ( 'NONE', #245, .T. ) ;
#167 = AXIS2_PLACEMENT_3D ( 'NONE', #112, #24, #57 ) ;
#168 = DIRECTION ( 'NONE',  ( -1.229631800225150020E-16, -1.000000000000000000, -0.000000000000000000 ) ) ;
#169 = DIRECTION ( 'NONE',  ( -0.000000000000000000, -0.000000000000000000, -1.000000000000000000 ) ) ;
#170 = FACE_OUTER_BOUND ( 'NONE', #116, .T. ) ;
#171 = DIRECTION ( 'NONE',  ( -0.000000000000000000, -0.000000000000000000, -1.000000000000000000 ) ) ;
#172 = FACE_OUTER_BOUND ( 'NONE', #330, .T. ) ;
#173 = CIRCLE ( 'NONE', #248, 0.1249999999999993477 ) ;
#174 = ORGANIZATION ( 'UNSPECIFIED', 'UNSPECIFIED', '' ) ;
#175 = LINE ( 'NONE', #204, #363 ) ;
#176 = ADVANCED_FACE ( 'NONE', ( #254, #341 ), #77, .F. ) ;
#177 = PRODUCT_RELATED_PRODUCT_CATEGORY ( 'detail', '', ( #226 ) ) ;
#178 = APPROVAL_ROLE ( '' ) ;
#179 = SECURITY_CLASSIFICATION ( '', '', #298 ) ;
#180 = PERSON_AND_ORGANIZATION_ROLE ( 'classification_officer' ) ;
#181 = COORDINATED_UNIVERSAL_TIME_OFFSET ( 5, 0, .BEHIND. ) ;
#182 = PERSON_AND_ORGANIZATION ( #126, #174 ) ;
#183 = APPROVAL_STATUS ( 'not_yet_approved' ) ;
#184 = VERTEX_POINT ( 'NONE', #324 ) ;
#185 = PLANE ( 'NONE',  #73 ) ;
#186 = VECTOR ( 'NONE', #160, 39.37007874015748143 ) ;
#187 = PERSON_AND_ORGANIZATION ( #126, #174 ) ;
#188 = CARTESIAN_POINT ( 'NONE',  ( 11.24999999999999822, -11.12499999999999822, -0.1150000000000000050 ) ) ;
#189 = EDGE_LOOP ( 'NONE', ( #19 ) ) ;
#190 = EDGE_CURVE ( 'NONE', #149, #149, #303, .T. ) ;
#191 = CARTESIAN_POINT ( 'NONE',  ( -11.00000000000000000, 11.12499999999999822, 0.1150000000000000050 ) ) ;
#192 = CARTESIAN_POINT ( 'NONE',  ( 11.37500000000000000, 11.37500000000000711, 0.000000000000000000 ) ) ;
#193 = VECTOR ( 'NONE', #168, 39.37007874015748143 ) ;
#194 = LINE ( 'NONE', #307, #267 ) ;
#195 = CC_DESIGN_PERSON_AND_ORGANIZATION_ASSIGNMENT ( #358, #9, ( #239 ) ) ;
#196 = ORIENTED_EDGE ( 'NONE', *, *, #146, .T. ) ;
#197 = APPLICATION_CONTEXT ( 'configuration controlled 3d designs of mechanical parts and assemblies' ) ;
#198 = CARTESIAN_POINT ( 'NONE',  ( -11.37500000000000000, -11.37500000000000000, 0.000000000000000000 ) ) ;
#199 = EDGE_LOOP ( 'NONE', ( #159 ) ) ;
#200 = CARTESIAN_POINT ( 'NONE',  ( -11.12499999999999822, -11.12499999999999822, 0.000000000000000000 ) ) ;
#201 = AXIS2_PLACEMENT_3D ( 'NONE', #332, #18, #370 ) ;
#202 = PLANE ( 'NONE',  #269 ) ;
#203 = FACE_OUTER_BOUND ( 'NONE', #349, .T. ) ;
#204 = CARTESIAN_POINT ( 'NONE',  ( -6.993530863780510092E-16, 11.37500000000000000, -0.1150000000000000050 ) ) ;
#205 = DIRECTION ( 'NONE',  ( 1.000000000000000000, 0.000000000000000000, 0.000000000000000000 ) ) ;
#206 = EDGE_CURVE ( 'NONE', #184, #184, #58, .T. ) ;
#207 = ORIENTED_EDGE ( 'NONE', *, *, #146, .F. ) ;
#208 = SHAPE_DEFINITION_REPRESENTATION ( #82, #88 ) ;
#209 = APPROVAL_ROLE ( '' ) ;
#210 = ADVANCED_FACE ( 'NONE', ( #71, #218, #103, #283, #27 ), #80, .F. ) ;
#211 = ORIENTED_EDGE ( 'NONE', *, *, #312, .T. ) ;
#212 = LOCAL_TIME ( 14, 43, 56.00000000000000000, #354 ) ;
#213 = CARTESIAN_POINT ( 'NONE',  ( -11.37500000000000000, 1.049029629567079916E-15, -0.1150000000000000050 ) ) ;
#214 = ADVANCED_FACE ( 'NONE', ( #133 ), #317, .T. ) ;
#215 = FACE_OUTER_BOUND ( 'NONE', #353, .T. ) ;
#216 = CIRCLE ( 'NONE', #143, 0.1249999999999993477 ) ;
#217 = ORIENTED_EDGE ( 'NONE', *, *, #360, .F. ) ;
#218 = FACE_BOUND ( 'NONE', #132, .T. ) ;
#219 = AXIS2_PLACEMENT_3D ( 'NONE', #26, #169, #242 ) ;
#220 = ORIENTED_EDGE ( 'NONE', *, *, #360, .T. ) ;
#221 = LINE ( 'NONE', #144, #251 ) ;
#222 = DIRECTION ( 'NONE',  ( -0.000000000000000000, -0.000000000000000000, -1.000000000000000000 ) ) ;
#223 = DIRECTION ( 'NONE',  ( 0.000000000000000000, -1.000000000000000000, -0.000000000000000000 ) ) ;
#224 = CARTESIAN_POINT ( 'NONE',  ( 11.12499999999999822, -11.12499999999999822, 0.1150000000000000050 ) ) ;
#225 = ADVANCED_FACE ( 'NONE', ( #338, #215 ), #281, .F. ) ;
#226 = PRODUCT ( 'BP2424ABS_Default', 'BP2424ABS_Default', '', ( #352 ) ) ;
#227 = FACE_BOUND ( 'NONE', #93, .T. ) ;
#228 = EDGE_CURVE ( 'NONE', #7, #107, #250, .T. ) ;
#229 = APPROVAL_PERSON_ORGANIZATION ( #34, #44, #209 ) ;
#230 = EDGE_LOOP ( 'NONE', ( #259 ) ) ;
#231 = AXIS2_PLACEMENT_3D ( 'NONE', #50, #287, #25 ) ;
#232 = VERTEX_POINT ( 'NONE', #246 ) ;
#233 = DATE_AND_TIME ( #11, #136 ) ;
#234 = DIRECTION ( 'NONE',  ( 1.000000000000000000, 0.000000000000000000, 0.000000000000000000 ) ) ;
#235 = EDGE_LOOP ( 'NONE', ( #165, #30, #20, #134 ) ) ;
#236 = PERSON_AND_ORGANIZATION ( #126, #174 ) ;
#237 = DIRECTION ( 'NONE',  ( 1.000000000000000000, 0.000000000000000000, -0.000000000000000000 ) ) ;
#238 = ORIENTED_EDGE ( 'NONE', *, *, #368, .F. ) ;
#239 = PRODUCT_DEFINITION ( 'UNKNOWN', '', #329, #334 ) ;
#240 = DIRECTION ( 'NONE',  ( -0.000000000000000000, -0.000000000000000000, -1.000000000000000000 ) ) ;
#241 = VECTOR ( 'NONE', #301, 39.37007874015748143 ) ;
#242 = DIRECTION ( 'NONE',  ( 1.000000000000000000, 0.000000000000000000, 0.000000000000000000 ) ) ;
#243 = CARTESIAN_POINT ( 'NONE',  ( 11.37500000000000000, -11.37500000000000000, 0.1150000000000000050 ) ) ;
#244 = CC_DESIGN_PERSON_AND_ORGANIZATION_ASSIGNMENT ( #182, #299, ( #226 ) ) ;
#245 = EDGE_LOOP ( 'NONE', ( #340 ) ) ;
#246 = CARTESIAN_POINT ( 'NONE',  ( 11.37500000000000000, 11.37500000000000178, 0.1150000000000000050 ) ) ;
#247 = LINE ( 'NONE', #137, #193 ) ;
#248 = AXIS2_PLACEMENT_3D ( 'NONE', #255, #252, #376 ) ;
#249 = ORIENTED_EDGE ( 'NONE', *, *, #156, .T. ) ;
#250 = LINE ( 'NONE', #45, #372 ) ;
#251 = VECTOR ( 'NONE', #311, 39.37007874015748143 ) ;
#252 = DIRECTION ( 'NONE',  ( -0.000000000000000000, -0.000000000000000000, -1.000000000000000000 ) ) ;
#253 = EDGE_CURVE ( 'NONE', #98, #98, #313, .T. ) ;
#254 = FACE_OUTER_BOUND ( 'NONE', #199, .T. ) ;
#255 = CARTESIAN_POINT ( 'NONE',  ( -11.12499999999999822, -11.12499999999999822, 0.1150000000000000050 ) ) ;
#256 = DIRECTION ( 'NONE',  ( -0.000000000000000000, 1.000000000000000000, 0.000000000000000000 ) ) ;
#257 = UNCERTAINTY_MEASURE_WITH_UNIT (LENGTH_MEASURE( 1.000000000000000082E-05 ), #92, 'distance_accuracy_value', 'NONE');
#258 = CLOSED_SHELL ( 'NONE', ( #210, #176, #225, #141, #106, #214, #36, #265, #138, #150 ) ) ;
#259 = ORIENTED_EDGE ( 'NONE', *, *, #253, .T. ) ;
#260 = DATE_AND_TIME ( #119, #296 ) ;
#261 = ORIENTED_EDGE ( 'NONE', *, *, #29, .F. ) ;
#262 = DATE_TIME_ROLE ( 'classification_date' ) ;
#263 = CARTESIAN_POINT ( 'NONE',  ( 11.24999999999999822, -11.12499999999999822, 0.1150000000000000050 ) ) ;
#264 = ORIENTED_EDGE ( 'NONE', *, *, #297, .F. ) ;
#265 = ADVANCED_FACE ( 'NONE', ( #203 ), #279, .T. ) ;
#266 = APPROVAL_STATUS ( 'not_yet_approved' ) ;
#267 = VECTOR ( 'NONE', #237, 39.37007874015748143 ) ;
#268 = CC_DESIGN_SECURITY_CLASSIFICATION ( #179, ( #329 ) ) ;
#269 = AXIS2_PLACEMENT_3D ( 'NONE', #3, #113, #315 ) ;
#270 = CARTESIAN_POINT ( 'NONE',  ( -11.37500000000000000, 11.37500000000000000, 0.000000000000000000 ) ) ;
#271 = PERSON_AND_ORGANIZATION ( #126, #174 ) ;
#272 = VERTEX_POINT ( 'NONE', #67 ) ;
#273 = ORIENTED_EDGE ( 'NONE', *, *, #371, .F. ) ;
#274 = VERTEX_POINT ( 'NONE', #328 ) ;
#275 = ORIENTED_EDGE ( 'NONE', *, *, #228, .T. ) ;
#276 = DIRECTION ( 'NONE',  ( -1.000000000000000000, 0.000000000000000000, 0.000000000000000000 ) ) ;
#277 = VERTEX_POINT ( 'NONE', #100 ) ;
#278 = APPROVAL_PERSON_ORGANIZATION ( #151, #64, #304 ) ;
#279 = PLANE ( 'NONE',  #85 ) ;
#280 = EDGE_LOOP ( 'NONE', ( #17 ) ) ;
#281 = CYLINDRICAL_SURFACE ( 'NONE', #56, 0.1249999999999993477 ) ;
#282 = ORIENTED_EDGE ( 'NONE', *, *, #253, .F. ) ;
#283 = FACE_BOUND ( 'NONE', #128, .T. ) ;
#284 = ORIENTED_EDGE ( 'NONE', *, *, #347, .F. ) ;
#285 = EDGE_CURVE ( 'NONE', #326, #90, #108, .T. ) ;
#286 = CIRCLE ( 'NONE', #104, 0.1249999999999993477 ) ;
#287 = DIRECTION ( 'NONE',  ( 0.000000000000000000, 0.000000000000000000, 1.000000000000000000 ) ) ;
#288 = FACE_OUTER_BOUND ( 'NONE', #42, .T. ) ;
#289 = DIRECTION ( 'NONE',  ( 0.000000000000000000, 0.000000000000000000, 1.000000000000000000 ) ) ;
#290 = PLANE ( 'NONE',  #167 ) ;
#291 = LINE ( 'NONE', #192, #350 ) ;
#292 = FACE_OUTER_BOUND ( 'NONE', #49, .T. ) ;
#293 = VECTOR ( 'NONE', #223, 39.37007874015748143 ) ;
#294 = CYLINDRICAL_SURFACE ( 'NONE', #231, 0.1249999999999993477 ) ;
#295 = CALENDAR_DATE ( 2023, 20, 12 ) ;
#296 = LOCAL_TIME ( 14, 43, 56.00000000000000000, #300 ) ;
#297 = EDGE_CURVE ( 'NONE', #272, #272, #216, .T. ) ;
#298 = SECURITY_CLASSIFICATION_LEVEL ( 'unclassified' ) ;
#299 = PERSON_AND_ORGANIZATION_ROLE ( 'design_owner' ) ;
#300 = COORDINATED_UNIVERSAL_TIME_OFFSET ( 5, 0, .BEHIND. ) ;
#301 = DIRECTION ( 'NONE',  ( 0.000000000000000000, 1.000000000000000000, -0.000000000000000000 ) ) ;
#302 = CC_DESIGN_APPROVAL ( #64, ( #179 ) ) ;
#303 = CIRCLE ( 'NONE', #219, 0.1249999999999993477 ) ;
#304 = APPROVAL_ROLE ( '' ) ;
#305 = LENGTH_MEASURE_WITH_UNIT ( LENGTH_MEASURE( 0.02539999999999999897 ), #122 );
#306 = LINE ( 'NONE', #43, #186 ) ;
#307 = CARTESIAN_POINT ( 'NONE',  ( -6.993530863780510092E-16, -11.37500000000000000, -0.1150000000000000050 ) ) ;
#308 = ORIENTED_EDGE ( 'NONE', *, *, #190, .F. ) ;
#309 = DIRECTION ( 'NONE',  ( 1.000000000000000000, 0.000000000000000000, 0.000000000000000000 ) ) ;
#310 = ORIENTED_EDGE ( 'NONE', *, *, #164, .T. ) ;
#311 = DIRECTION ( 'NONE',  ( 1.000000000000000000, 2.459263600450290179E-16, -0.000000000000000000 ) ) ;
#312 = EDGE_CURVE ( 'NONE', #232, #356, #291, .T. ) ;
#313 = CIRCLE ( 'NONE', #373, 0.1249999999999993477 ) ;
#314 = DIRECTION ( 'NONE',  ( 0.000000000000000000, 0.000000000000000000, 1.000000000000000000 ) ) ;
#315 = DIRECTION ( 'NONE',  ( 1.000000000000000000, -1.229631800225150020E-16, 0.000000000000000000 ) ) ;
#316 = CC_DESIGN_PERSON_AND_ORGANIZATION_ASSIGNMENT ( #236, #323, ( #329 ) ) ;
#317 = PLANE ( 'NONE',  #348 ) ;
#318 = FACE_BOUND ( 'NONE', #359, .T. ) ;
#319 = DIRECTION ( 'NONE',  ( 1.000000000000000000, 0.000000000000000000, 0.000000000000000000 ) ) ;
#320 = AXIS2_PLACEMENT_3D ( 'NONE', #139, #109, #319 ) ;
#321 = AXIS2_PLACEMENT_3D ( 'NONE', #47, #135, #21 ) ;
#322 = EDGE_CURVE ( 'NONE', #90, #99, #306, .T. ) ;
#323 = PERSON_AND_ORGANIZATION_ROLE ( 'creator' ) ;
#324 = CARTESIAN_POINT ( 'NONE',  ( 11.24999999999999822, 11.12499999999999822, 0.1150000000000000050 ) ) ;
#325 = CALENDAR_DATE ( 2023, 20, 12 ) ;
#326 = VERTEX_POINT ( 'NONE', #16 ) ;
#327 = CALENDAR_DATE ( 2023, 20, 12 ) ;
#328 = CARTESIAN_POINT ( 'NONE',  ( -11.00000000000000000, -11.12499999999999822, 0.1150000000000000050 ) ) ;
#329 = PRODUCT_DEFINITION_FORMATION_WITH_SPECIFIED_SOURCE ( 'ANY', '', #226, .NOT_KNOWN. ) ;
#330 = EDGE_LOOP ( 'NONE', ( #87 ) ) ;
#331 = VERTEX_POINT ( 'NONE', #362 ) ;
#332 = CARTESIAN_POINT ( 'NONE',  ( 11.12499999999999822, 11.12499999999999822, 0.1150000000000000050 ) ) ;
#333 = DIRECTION ( 'NONE',  ( 1.229631800225150020E-16, 1.000000000000000000, 0.000000000000000000 ) ) ;
#334 = DESIGN_CONTEXT ( 'detailed design', #335, 'design' ) ;
#335 = APPLICATION_CONTEXT ( 'configuration controlled 3d designs of mechanical parts and assemblies' ) ;
#336 = VECTOR ( 'NONE', #256, 39.37007874015748143 ) ;
#337 = ORIENTED_EDGE ( 'NONE', *, *, #94, .F. ) ;
#338 = FACE_OUTER_BOUND ( 'NONE', #102, .T. ) ;
#339 = CC_DESIGN_PERSON_AND_ORGANIZATION_ASSIGNMENT ( #95, #180, ( #179 ) ) ;
#340 = ORIENTED_EDGE ( 'NONE', *, *, #297, .T. ) ;
#341 = FACE_OUTER_BOUND ( 'NONE', #230, .T. ) ;
#342 = CC_DESIGN_APPROVAL ( #351, ( #329 ) ) ;
#343 = LINE ( 'NONE', #52, #336 ) ;
#344 = CARTESIAN_POINT ( 'NONE',  ( 11.12499999999999822, 11.12499999999999822, -0.1150000000000000050 ) ) ;
#345 = DIRECTION ( 'NONE',  ( -1.000000000000000000, -0.000000000000000000, 0.000000000000000000 ) ) ;
#346 = DIRECTION ( 'NONE',  ( -0.000000000000000000, -0.000000000000000000, -1.000000000000000000 ) ) ;
#347 = EDGE_CURVE ( 'NONE', #7, #99, #131, .T. ) ;
#348 = AXIS2_PLACEMENT_3D ( 'NONE', #198, #276, #14 ) ;
#349 = EDGE_LOOP ( 'NONE', ( #374, #155, #369, #275 ) ) ;
#350 = VECTOR ( 'NONE', #157, 39.37007874015748143 ) ;
#351 = APPROVAL ( #31, 'UNSPECIFIED' ) ;
#352 = MECHANICAL_CONTEXT ( 'NONE', #197, 'mechanical' ) ;
#353 = EDGE_LOOP ( 'NONE', ( #196 ) ) ;
#354 = COORDINATED_UNIVERSAL_TIME_OFFSET ( 5, 0, .BEHIND. ) ;
#355 = VERTEX_POINT ( 'NONE', #263 ) ;
#356 = VERTEX_POINT ( 'NONE', #72 ) ;
#357 = EDGE_LOOP ( 'NONE', ( #220, #63, #48, #96 ) ) ;
#358 = PERSON_AND_ORGANIZATION ( #126, #174 ) ;
#359 = EDGE_LOOP ( 'NONE', ( #145 ) ) ;
#360 = EDGE_CURVE ( 'NONE', #90, #107, #194, .T. ) ;
#361 = CARTESIAN_POINT ( 'NONE',  ( -11.37500000000000000, 11.37500000000000000, 0.000000000000000000 ) ) ;
#362 = CARTESIAN_POINT ( 'NONE',  ( -11.00000000000000000, 11.12499999999999822, -0.1150000000000000050 ) ) ;
#363 = VECTOR ( 'NONE', #345, 39.37007874015748143 ) ;
#364 = EDGE_LOOP ( 'NONE', ( #264 ) ) ;
#365 = CC_DESIGN_PERSON_AND_ORGANIZATION_ASSIGNMENT ( #187, #60, ( #329 ) ) ;
#366 = CARTESIAN_POINT ( 'NONE',  ( -11.12499999999999822, 11.12499999999999822, 0.000000000000000000 ) ) ;
#367 = DIRECTION ( 'NONE',  ( -1.000000000000000000, 1.229631800225150020E-16, -0.000000000000000000 ) ) ;
#368 = EDGE_CURVE ( 'NONE', #70, #70, #286, .T. ) ;
#369 = ORIENTED_EDGE ( 'NONE', *, *, #29, .T. ) ;
#370 = DIRECTION ( 'NONE',  ( 1.000000000000000000, 0.000000000000000000, 0.000000000000000000 ) ) ;
#371 = EDGE_CURVE ( 'NONE', #99, #277, #62, .T. ) ;
#372 = VECTOR ( 'NONE', #163, 39.37007874015748143 ) ;
#373 = AXIS2_PLACEMENT_3D ( 'NONE', #101, #75, #40 ) ;
#374 = ORIENTED_EDGE ( 'NONE', *, *, #94, .T. ) ;
#375 = CARTESIAN_POINT ( 'NONE',  ( 11.37500000000000000, 11.37500000000000000, 0.000000000000000000 ) ) ;
#376 = DIRECTION ( 'NONE',  ( 1.000000000000000000, 0.000000000000000000, 0.000000000000000000 ) ) ;
ENDSEC;
END-ISO-10303-21;
