ISO-10303-21;
HEADER;
FILE_DESCRIPTION (( 'STEP AP214' ),
    '1' );
FILE_NAME ('BP2424A.STEP',
    '2023-12-20T19:31:37',
    ( '' ),
    ( '' ),
    'SwSTEP 2.0',
    'SolidWorks 2023',
    '' );
FILE_SCHEMA (( 'AUTOMOTIVE_DESIGN' ));
ENDSEC;

DATA;
#1 = EDGE_LOOP ( 'NONE', ( #171 ) ) ;
#2 = CARTESIAN_POINT ( 'NONE',  ( 11.37500000000000000, -11.37500000000000000, 0.04000000000000000083 ) ) ;
#3 = ORIENTED_EDGE ( 'NONE', *, *, #89, .T. ) ;
#4 = AXIS2_PLACEMENT_3D ( 'NONE', #103, #82, #100 ) ;
#5 = ORIENTED_EDGE ( 'NONE', *, *, #20, .F. ) ;
#6 = DIRECTION ( 'NONE',  ( -1.229631800225150020E-16, -1.000000000000000000, 0.000000000000000000 ) ) ;
#7 = DIRECTION ( 'NONE',  ( 1.000000000000000000, -1.229631800225150020E-16, 0.000000000000000000 ) ) ;
#8 = DIRECTION ( 'NONE',  ( -2.459263600450290179E-16, 1.000000000000000000, 0.000000000000000000 ) ) ;
#9 = AXIS2_PLACEMENT_3D ( 'NONE', #33, #8, #316 ) ;
#10 = CYLINDRICAL_SURFACE ( 'NONE', #4, 0.1565000000000003610 ) ;
#11 = DIRECTION ( 'NONE',  ( 0.000000000000000000, -0.000000000000000000, -1.000000000000000000 ) ) ;
#12 = EDGE_CURVE ( 'NONE', #305, #305, #44, .T. ) ;
#13 = SURFACE_SIDE_STYLE ('',( #258 ) ) ;
#14 = ORIENTED_EDGE ( 'NONE', *, *, #190, .T. ) ;
#15 = FACE_OUTER_BOUND ( 'NONE', #140, .T. ) ;
#16 = EDGE_LOOP ( 'NONE', ( #170 ) ) ;
#17 = DIRECTION ( 'NONE',  ( 0.000000000000000000, -1.000000000000000000, -0.000000000000000000 ) ) ;
#18 = SHAPE_DEFINITION_REPRESENTATION ( #203, #178 ) ;
#19 = ORIENTED_EDGE ( 'NONE', *, *, #181, .F. ) ;
#20 = EDGE_CURVE ( 'NONE', #215, #215, #105, .T. ) ;
#21 = EDGE_LOOP ( 'NONE', ( #88 ) ) ;
#22 = AXIS2_PLACEMENT_3D ( 'NONE', #41, #318, #320 ) ;
#23 = CARTESIAN_POINT ( 'NONE',  ( -10.96849999999999881, 11.12499999999999822, 0.04000000000000000083 ) ) ;
#24 = DIRECTION ( 'NONE',  ( 0.000000000000000000, 0.000000000000000000, 1.000000000000000000 ) ) ;
#25 = EDGE_CURVE ( 'NONE', #113, #113, #324, .T. ) ;
#26 = VERTEX_POINT ( 'NONE', #23 ) ;
#27 = PLANE ( 'NONE',  #198 ) ;
#28 = APPLICATION_CONTEXT ( 'automotive_design' ) ;
#29 = AXIS2_PLACEMENT_3D ( 'NONE', #232, #80, #155 ) ;
#30 = FACE_OUTER_BOUND ( 'NONE', #329, .T. ) ;
#31 = EDGE_CURVE ( 'NONE', #49, #49, #66, .T. ) ;
#32 = CARTESIAN_POINT ( 'NONE',  ( -11.37500000000000000, 11.37500000000000000, -0.04000000000000000083 ) ) ;
#33 = CARTESIAN_POINT ( 'NONE',  ( -11.37500000000000000, 11.37500000000000000, 0.000000000000000000 ) ) ;
#34 = FACE_OUTER_BOUND ( 'NONE', #259, .T. ) ;
#35 = AXIS2_PLACEMENT_3D ( 'NONE', #153, #313, #231 ) ;
#36 = ADVANCED_FACE ( 'NONE', ( #247 ), #27, .T. ) ;
#37 = CARTESIAN_POINT ( 'NONE',  ( -11.37500000000000000, -11.37499999999999822, 0.000000000000000000 ) ) ;
#38 = ORIENTED_EDGE ( 'NONE', *, *, #175, .F. ) ;
#39 = CARTESIAN_POINT ( 'NONE',  ( -11.37500000000000000, -11.37500000000000000, -0.04000000000000000083 ) ) ;
#40 = FACE_BOUND ( 'NONE', #269, .T. ) ;
#41 = CARTESIAN_POINT ( 'NONE',  ( -11.12499999999999822, -11.12499999999999822, -0.04000000000000000083 ) ) ;
#42 = LINE ( 'NONE', #136, #45 ) ;
#43 = EDGE_LOOP ( 'NONE', ( #131 ) ) ;
#44 = CIRCLE ( 'NONE', #295, 0.1565000000000003610 ) ;
#45 = VECTOR ( 'NONE', #83, 39.37007874015748143 ) ;
#46 = CARTESIAN_POINT ( 'NONE',  ( 11.28149999999999942, -11.12499999999999822, 0.04000000000000000083 ) ) ;
#47 = ORIENTED_EDGE ( 'NONE', *, *, #249, .F. ) ;
#48 = CARTESIAN_POINT ( 'NONE',  ( 11.12499999999999822, -11.12499999999999822, -0.04000000000000000083 ) ) ;
#49 = VERTEX_POINT ( 'NONE', #167 ) ;
#50 = ORIENTED_EDGE ( 'NONE', *, *, #156, .F. ) ;
#51 = AXIS2_PLACEMENT_3D ( 'NONE', #224, #245, #96 ) ;
#52 = CARTESIAN_POINT ( 'NONE',  ( -10.96849999999999881, 11.12499999999999822, -0.04000000000000000083 ) ) ;
#53 = ORIENTED_EDGE ( 'NONE', *, *, #264, .F. ) ;
#54 = ORIENTED_EDGE ( 'NONE', *, *, #254, .F. ) ;
#55 = CYLINDRICAL_SURFACE ( 'NONE', #138, 0.1565000000000003610 ) ;
#56 = CLOSED_SHELL ( 'NONE', ( #243, #130, #185, #234, #106, #64, #270, #217, #36, #205 ) ) ;
#57 = EDGE_CURVE ( 'NONE', #221, #169, #76, .T. ) ;
#58 = DIRECTION ( 'NONE',  ( 0.000000000000000000, 0.000000000000000000, 1.000000000000000000 ) ) ;
#59 = DIRECTION ( 'NONE',  ( -1.000000000000000000, -0.000000000000000000, 0.000000000000000000 ) ) ;
#60 = DIRECTION ( 'NONE',  ( -0.000000000000000000, -0.000000000000000000, -1.000000000000000000 ) ) ;
#61 = LINE ( 'NONE', #37, #192 ) ;
#62 = VECTOR ( 'NONE', #248, 39.37007874015748143 ) ;
#63 =( CONVERSION_BASED_UNIT ( 'INCH', #239 ) LENGTH_UNIT ( ) NAMED_UNIT ( #160 ) );
#64 = ADVANCED_FACE ( 'NONE', ( #228 ), #204, .T. ) ;
#65 = EDGE_LOOP ( 'NONE', ( #142 ) ) ;
#66 = CIRCLE ( 'NONE', #117, 0.1565000000000003610 ) ;
#67 = DIRECTION ( 'NONE',  ( 0.000000000000000000, 0.000000000000000000, 1.000000000000000000 ) ) ;
#68 = FACE_BOUND ( 'NONE', #65, .T. ) ;
#69 =( CONVERSION_BASED_UNIT ( 'INCH', #143 ) LENGTH_UNIT ( ) NAMED_UNIT ( #86 ) );
#70 = EDGE_LOOP ( 'NONE', ( #302 ) ) ;
#71 = VECTOR ( 'NONE', #60, 39.37007874015748143 ) ;
#72 = ORIENTED_EDGE ( 'NONE', *, *, #20, .T. ) ;
#73 = EDGE_LOOP ( 'NONE', ( #301 ) ) ;
#74 = CARTESIAN_POINT ( 'NONE',  ( 11.28149999999999942, 11.12499999999999822, -0.04000000000000000083 ) ) ;
#75 = ORIENTED_EDGE ( 'NONE', *, *, #89, .F. ) ;
#76 = LINE ( 'NONE', #172, #62 ) ;
#77 = LINE ( 'NONE', #179, #207 ) ;
#78 = FACE_OUTER_BOUND ( 'NONE', #16, .T. ) ;
#79 = AXIS2_PLACEMENT_3D ( 'NONE', #211, #188, #206 ) ;
#80 = DIRECTION ( 'NONE',  ( -0.000000000000000000, -0.000000000000000000, -1.000000000000000000 ) ) ;
#81 = FACE_BOUND ( 'NONE', #189, .T. ) ;
#82 = DIRECTION ( 'NONE',  ( 0.000000000000000000, 0.000000000000000000, 1.000000000000000000 ) ) ;
#83 = DIRECTION ( 'NONE',  ( -0.000000000000000000, -1.000000000000000000, 0.000000000000000000 ) ) ;
#84 = SURFACE_STYLE_USAGE ( .BOTH. , #13 ) ;
#85 = FACE_OUTER_BOUND ( 'NONE', #327, .T. ) ;
#86 = DIMENSIONAL_EXPONENTS ( 1.000000000000000000, 0.000000000000000000, 0.000000000000000000, 0.000000000000000000, 0.000000000000000000, 0.000000000000000000, 0.000000000000000000 ) ;
#87 = FACE_OUTER_BOUND ( 'NONE', #133, .T. ) ;
#88 = ORIENTED_EDGE ( 'NONE', *, *, #319, .F. ) ;
#89 = EDGE_CURVE ( 'NONE', #299, #199, #311, .T. ) ;
#90 = CARTESIAN_POINT ( 'NONE',  ( -11.12499999999999822, -11.12499999999999822, 0.04000000000000000083 ) ) ;
#91 = ORIENTED_EDGE ( 'NONE', *, *, #249, .T. ) ;
#92 = AXIS2_PLACEMENT_3D ( 'NONE', #220, #165, #246 ) ;
#93 = APPLICATION_PROTOCOL_DEFINITION ( 'draft international standard', 'automotive_design', 1998, #252 ) ;
#94 = ORIENTED_EDGE ( 'NONE', *, *, #126, .T. ) ;
#95 = CARTESIAN_POINT ( 'NONE',  ( 11.37500000000000000, 11.37500000000000000, -0.04000000000000000083 ) ) ;
#96 = DIRECTION ( 'NONE',  ( 1.000000000000000000, 0.000000000000000000, 0.000000000000000000 ) ) ;
#97 =( NAMED_UNIT ( * ) PLANE_ANGLE_UNIT ( ) SI_UNIT ( $, .RADIAN. ) );
#98 = CARTESIAN_POINT ( 'NONE',  ( 11.37500000000000000, 11.37500000000000000, 0.000000000000000000 ) ) ;
#99 = ORIENTED_EDGE ( 'NONE', *, *, #156, .T. ) ;
#100 = DIRECTION ( 'NONE',  ( 1.000000000000000000, 0.000000000000000000, 0.000000000000000000 ) ) ;
#101 = VECTOR ( 'NONE', #208, 39.37007874015748143 ) ;
#102 = FACE_BOUND ( 'NONE', #70, .T. ) ;
#103 = CARTESIAN_POINT ( 'NONE',  ( -11.12499999999999822, 11.12499999999999822, 0.000000000000000000 ) ) ;
#104 = FACE_BOUND ( 'NONE', #294, .T. ) ;
#105 = CIRCLE ( 'NONE', #51, 0.1565000000000003610 ) ;
#106 = ADVANCED_FACE ( 'NONE', ( #30, #128 ), #230, .F. ) ;
#107 = FACE_BOUND ( 'NONE', #73, .T. ) ;
#108 = ORIENTED_EDGE ( 'NONE', *, *, #57, .T. ) ;
#109 = FILL_AREA_STYLE ('',( #260 ) ) ;
#110 = DIRECTION ( 'NONE',  ( 1.000000000000000000, 0.000000000000000000, 0.000000000000000000 ) ) ;
#111 = ORIENTED_EDGE ( 'NONE', *, *, #121, .F. ) ;
#112 = AXIS2_PLACEMENT_3D ( 'NONE', #162, #67, #110 ) ;
#113 = VERTEX_POINT ( 'NONE', #194 ) ;
#114 = ORIENTED_EDGE ( 'NONE', *, *, #190, .F. ) ;
#115 = EDGE_LOOP ( 'NONE', ( #120, #19, #38, #3 ) ) ;
#116 = EDGE_LOOP ( 'NONE', ( #304, #75, #111, #54 ) ) ;
#117 = AXIS2_PLACEMENT_3D ( 'NONE', #48, #24, #119 ) ;
#118 = CIRCLE ( 'NONE', #22, 0.1565000000000003610 ) ;
#119 = DIRECTION ( 'NONE',  ( 1.000000000000000000, 0.000000000000000000, 0.000000000000000000 ) ) ;
#120 = ORIENTED_EDGE ( 'NONE', *, *, #264, .T. ) ;
#121 = EDGE_CURVE ( 'NONE', #323, #299, #229, .T. ) ;
#122 = VERTEX_POINT ( 'NONE', #173 ) ;
#123 = CARTESIAN_POINT ( 'NONE',  ( 11.37500000000000000, 1.144395959527719977E-15, 0.04000000000000000083 ) ) ;
#124 = PRODUCT_DEFINITION_CONTEXT ( 'detailed design', #28, 'design' ) ;
#125 = DIRECTION ( 'NONE',  ( 0.000000000000000000, 0.000000000000000000, 1.000000000000000000 ) ) ;
#126 = EDGE_CURVE ( 'NONE', #26, #26, #150, .T. ) ;
#127 = CARTESIAN_POINT ( 'NONE',  ( -6.993530863780510092E-16, 1.049029629567079916E-15, -0.04000000000000000083 ) ) ;
#128 = FACE_OUTER_BOUND ( 'NONE', #266, .T. ) ;
#129 = CYLINDRICAL_SURFACE ( 'NONE', #112, 0.1565000000000003610 ) ;
#130 = ADVANCED_FACE ( 'NONE', ( #250, #180 ), #55, .F. ) ;
#131 = ORIENTED_EDGE ( 'NONE', *, *, #25, .F. ) ;
#132 = AXIS2_PLACEMENT_3D ( 'NONE', #202, #287, #310 ) ;
#133 = EDGE_LOOP ( 'NONE', ( #50 ) ) ;
#134 = LINE ( 'NONE', #184, #101 ) ;
#135 = LINE ( 'NONE', #237, #307 ) ;
#136 = CARTESIAN_POINT ( 'NONE',  ( -11.37500000000000000, -11.37500000000000000, -0.04000000000000000083 ) ) ;
#137 = ORIENTED_EDGE ( 'NONE', *, *, #309, .T. ) ;
#138 = AXIS2_PLACEMENT_3D ( 'NONE', #280, #125, #149 ) ;
#139 = VERTEX_POINT ( 'NONE', #74 ) ;
#140 = EDGE_LOOP ( 'NONE', ( #137, #114, #210, #163 ) ) ;
#141 =( LENGTH_UNIT ( ) NAMED_UNIT ( * ) SI_UNIT ( $, .METRE. ) );
#142 = ORIENTED_EDGE ( 'NONE', *, *, #25, .T. ) ;
#143 = LENGTH_MEASURE_WITH_UNIT ( LENGTH_MEASURE( 0.02539999999999999897 ), #141 );
#144 = CARTESIAN_POINT ( 'NONE',  ( -11.12499999999999822, 11.12499999999999822, -0.04000000000000000083 ) ) ;
#145 = VECTOR ( 'NONE', #283, 39.37007874015748143 ) ;
#146 = VECTOR ( 'NONE', #218, 39.37007874015748143 ) ;
#147 = DIRECTION ( 'NONE',  ( 1.000000000000000000, 0.000000000000000000, 0.000000000000000000 ) ) ;
#148 = DIRECTION ( 'NONE',  ( 0.000000000000000000, 0.000000000000000000, 1.000000000000000000 ) ) ;
#149 = DIRECTION ( 'NONE',  ( 1.000000000000000000, 0.000000000000000000, 0.000000000000000000 ) ) ;
#150 = CIRCLE ( 'NONE', #29, 0.1565000000000003610 ) ;
#151 = FACE_BOUND ( 'NONE', #1, .T. ) ;
#152 = FACE_OUTER_BOUND ( 'NONE', #225, .T. ) ;
#153 = CARTESIAN_POINT ( 'NONE',  ( 11.12499999999999822, -11.12499999999999822, 0.000000000000000000 ) ) ;
#154 = VECTOR ( 'NONE', #17, 39.37007874015748143 ) ;
#155 = DIRECTION ( 'NONE',  ( 1.000000000000000000, 0.000000000000000000, 0.000000000000000000 ) ) ;
#156 = EDGE_CURVE ( 'NONE', #139, #139, #213, .T. ) ;
#157 =( NAMED_UNIT ( * ) SI_UNIT ( $, .STERADIAN. ) SOLID_ANGLE_UNIT ( ) );
#158 = ORIENTED_EDGE ( 'NONE', *, *, #284, .T. ) ;
#159 = LINE ( 'NONE', #298, #289 ) ;
#160 = DIMENSIONAL_EXPONENTS ( 1.000000000000000000, 0.000000000000000000, 0.000000000000000000, 0.000000000000000000, 0.000000000000000000, 0.000000000000000000, 0.000000000000000000 ) ;
#161 = LINE ( 'NONE', #325, #154 ) ;
#162 = CARTESIAN_POINT ( 'NONE',  ( 11.12499999999999822, 11.12499999999999822, 0.000000000000000000 ) ) ;
#163 = ORIENTED_EDGE ( 'NONE', *, *, #181, .T. ) ;
#164 = FACE_BOUND ( 'NONE', #187, .T. ) ;
#165 = DIRECTION ( 'NONE',  ( 0.000000000000000000, 0.000000000000000000, 1.000000000000000000 ) ) ;
#166 = EDGE_LOOP ( 'NONE', ( #108, #278, #275, #14 ) ) ;
#167 = CARTESIAN_POINT ( 'NONE',  ( 11.28149999999999942, -11.12499999999999822, -0.04000000000000000083 ) ) ;
#168 = PRODUCT_RELATED_PRODUCT_CATEGORY ( 'part', '', ( #286 ) ) ;
#169 = VERTEX_POINT ( 'NONE', #177 ) ;
#170 = ORIENTED_EDGE ( 'NONE', *, *, #126, .F. ) ;
#171 = ORIENTED_EDGE ( 'NONE', *, *, #31, .T. ) ;
#172 = CARTESIAN_POINT ( 'NONE',  ( 11.37500000000000000, -11.37500000000000000, -0.04000000000000000083 ) ) ;
#173 = CARTESIAN_POINT ( 'NONE',  ( -11.37500000000000000, -11.37500000000000000, 0.04000000000000000083 ) ) ;
#174 = UNCERTAINTY_MEASURE_WITH_UNIT (LENGTH_MEASURE( 1.000000000000000082E-05 ), #63, 'distance_accuracy_value', 'NONE');
#175 = EDGE_CURVE ( 'NONE', #299, #236, #77, .T. ) ;
#176 = CARTESIAN_POINT ( 'NONE',  ( 11.37500000000000000, 11.37500000000000178, -0.04000000000000000083 ) ) ;
#177 = CARTESIAN_POINT ( 'NONE',  ( 11.37500000000000000, -11.37500000000000000, -0.04000000000000000083 ) ) ;
#178 = ADVANCED_BREP_SHAPE_REPRESENTATION ( 'BP2424A', ( #219, #92 ), #262 ) ;
#179 = CARTESIAN_POINT ( 'NONE',  ( -6.993530863780510092E-16, 11.37500000000000000, 0.04000000000000000083 ) ) ;
#180 = FACE_OUTER_BOUND ( 'NONE', #226, .T. ) ;
#181 = EDGE_CURVE ( 'NONE', #236, #214, #200, .T. ) ;
#182 = COLOUR_RGB ( '',0.7921568627450980005, 0.8196078431372548767, 0.9333333333333333481 ) ;
#183 = DIRECTION ( 'NONE',  ( -1.000000000000000000, -2.459263600450290179E-16, 0.000000000000000000 ) ) ;
#184 = CARTESIAN_POINT ( 'NONE',  ( 11.37500000000000000, -11.37500000000000000, 0.000000000000000000 ) ) ;
#185 = ADVANCED_FACE ( 'NONE', ( #78, #34 ), #10, .F. ) ;
#186 = AXIS2_PLACEMENT_3D ( 'NONE', #127, #58, #251 ) ;
#187 = EDGE_LOOP ( 'NONE', ( #72 ) ) ;
#188 = DIRECTION ( 'NONE',  ( 0.000000000000000000, 0.000000000000000000, 1.000000000000000000 ) ) ;
#189 = EDGE_LOOP ( 'NONE', ( #91 ) ) ;
#190 = EDGE_CURVE ( 'NONE', #122, #221, #61, .T. ) ;
#191 = ORIENTED_EDGE ( 'NONE', *, *, #175, .T. ) ;
#192 = VECTOR ( 'NONE', #11, 39.37007874015748143 ) ;
#193 = ORIENTED_EDGE ( 'NONE', *, *, #312, .F. ) ;
#194 = CARTESIAN_POINT ( 'NONE',  ( 11.28149999999999942, 11.12499999999999822, 0.04000000000000000083 ) ) ;
#195 = CARTESIAN_POINT ( 'NONE',  ( 11.12499999999999822, 11.12499999999999822, 0.04000000000000000083 ) ) ;
#196 = PRODUCT_CONTEXT ( 'NONE', #252, 'mechanical' ) ;
#197 = DIRECTION ( 'NONE',  ( 1.000000000000000000, -1.229631800225150020E-16, 0.000000000000000000 ) ) ;
#198 = AXIS2_PLACEMENT_3D ( 'NONE', #98, #197, #308 ) ;
#199 = VERTEX_POINT ( 'NONE', #176 ) ;
#200 = LINE ( 'NONE', #255, #71 ) ;
#201 = PLANE ( 'NONE',  #9 ) ;
#202 = CARTESIAN_POINT ( 'NONE',  ( 11.12499999999999822, 11.12499999999999822, -0.04000000000000000083 ) ) ;
#203 = PRODUCT_DEFINITION_SHAPE ( 'NONE', 'NONE',  #291 ) ;
#204 = PLANE ( 'NONE',  #288 ) ;
#205 = ADVANCED_FACE ( 'NONE', ( #81, #102, #104, #151, #152 ), #281, .F. ) ;
#206 = DIRECTION ( 'NONE',  ( 1.000000000000000000, 0.000000000000000000, -0.000000000000000000 ) ) ;
#207 = VECTOR ( 'NONE', #59, 39.37007874015748143 ) ;
#208 = DIRECTION ( 'NONE',  ( -0.000000000000000000, 0.000000000000000000, 1.000000000000000000 ) ) ;
#209 = PLANE ( 'NONE',  #79 ) ;
#210 = ORIENTED_EDGE ( 'NONE', *, *, #279, .F. ) ;
#211 = CARTESIAN_POINT ( 'NONE',  ( -6.993530863780510092E-16, 1.144395959527719977E-15, 0.04000000000000000083 ) ) ;
#212 = CARTESIAN_POINT ( 'NONE',  ( -11.37500000000000000, -11.37500000000000000, 0.000000000000000000 ) ) ;
#213 = CIRCLE ( 'NONE', #132, 0.1565000000000003610 ) ;
#214 = VERTEX_POINT ( 'NONE', #32 ) ;
#215 = VERTEX_POINT ( 'NONE', #46 ) ;
#216 = ORIENTED_EDGE ( 'NONE', *, *, #31, .F. ) ;
#217 = ADVANCED_FACE ( 'NONE', ( #253 ), #201, .T. ) ;
#218 = DIRECTION ( 'NONE',  ( 1.229631800225150020E-16, 1.000000000000000000, 0.000000000000000000 ) ) ;
#219 = MANIFOLD_SOLID_BREP ( 'Solid1', #56 ) ;
#220 = CARTESIAN_POINT ( 'NONE',  ( 0.000000000000000000, 0.000000000000000000, 0.000000000000000000 ) ) ;
#221 = VERTEX_POINT ( 'NONE', #39 ) ;
#222 = VECTOR ( 'NONE', #285, 39.37007874015748143 ) ;
#223 = VERTEX_POINT ( 'NONE', #303 ) ;
#224 = CARTESIAN_POINT ( 'NONE',  ( 11.12499999999999822, -11.12499999999999822, 0.04000000000000000083 ) ) ;
#225 = EDGE_LOOP ( 'NONE', ( #53, #193, #297, #306 ) ) ;
#226 = EDGE_LOOP ( 'NONE', ( #47 ) ) ;
#227 = PRESENTATION_LAYER_ASSIGNMENT (  '', '', ( #244 ) ) ;
#228 = FACE_OUTER_BOUND ( 'NONE', #166, .T. ) ;
#229 = LINE ( 'NONE', #123, #145 ) ;
#230 = CYLINDRICAL_SURFACE ( 'NONE', #35, 0.1565000000000003610 ) ;
#231 = DIRECTION ( 'NONE',  ( 1.000000000000000000, 0.000000000000000000, 0.000000000000000000 ) ) ;
#232 = CARTESIAN_POINT ( 'NONE',  ( -11.12499999999999822, 11.12499999999999822, 0.04000000000000000083 ) ) ;
#233 = CARTESIAN_POINT ( 'NONE',  ( -11.37500000000000000, 11.37500000000000000, 0.04000000000000000083 ) ) ;
#234 = ADVANCED_FACE ( 'NONE', ( #290, #87 ), #129, .F. ) ;
#235 = PRESENTATION_STYLE_ASSIGNMENT (( #84 ) ) ;
#236 = VERTEX_POINT ( 'NONE', #233 ) ;
#237 = CARTESIAN_POINT ( 'NONE',  ( -11.37500000000000000, 11.37500000000000000, -0.04000000000000000083 ) ) ;
#238 = UNCERTAINTY_MEASURE_WITH_UNIT (LENGTH_MEASURE( 1.000000000000000082E-05 ), #69, 'distance_accuracy_value', 'NONE');
#239 = LENGTH_MEASURE_WITH_UNIT ( LENGTH_MEASURE( 0.02539999999999999897 ), #296 );
#240 = ORIENTED_EDGE ( 'NONE', *, *, #12, .F. ) ;
#241 = VERTEX_POINT ( 'NONE', #272 ) ;
#242 = DIRECTION ( 'NONE',  ( -0.000000000000000000, -0.000000000000000000, -1.000000000000000000 ) ) ;
#243 = ADVANCED_FACE ( 'NONE', ( #107, #40, #68, #164, #85 ), #209, .T. ) ;
#244 = STYLED_ITEM ( 'NONE', ( #235 ), #219 ) ;
#245 = DIRECTION ( 'NONE',  ( -0.000000000000000000, -0.000000000000000000, -1.000000000000000000 ) ) ;
#246 = DIRECTION ( 'NONE',  ( 1.000000000000000000, 0.000000000000000000, 0.000000000000000000 ) ) ;
#247 = FACE_OUTER_BOUND ( 'NONE', #116, .T. ) ;
#248 = DIRECTION ( 'NONE',  ( 1.000000000000000000, -1.229631800225150020E-16, 0.000000000000000000 ) ) ;
#249 = EDGE_CURVE ( 'NONE', #223, #223, #118, .T. ) ;
#250 = FACE_OUTER_BOUND ( 'NONE', #21, .T. ) ;
#251 = DIRECTION ( 'NONE',  ( 1.000000000000000000, 0.000000000000000000, -0.000000000000000000 ) ) ;
#252 = APPLICATION_CONTEXT ( 'automotive_design' ) ;
#253 = FACE_OUTER_BOUND ( 'NONE', #115, .T. ) ;
#254 = EDGE_CURVE ( 'NONE', #169, #323, #134, .T. ) ;
#255 = CARTESIAN_POINT ( 'NONE',  ( -11.37500000000000000, 11.37500000000000000, 0.000000000000000000 ) ) ;
#256 = PRODUCT_DEFINITION_FORMATION_WITH_SPECIFIED_SOURCE ( 'ANY', '', #286, .NOT_KNOWN. ) ;
#257 = CARTESIAN_POINT ( 'NONE',  ( 11.37500000000000000, 11.37500000000000711, 0.000000000000000000 ) ) ;
#258 = SURFACE_STYLE_FILL_AREA ( #109 ) ;
#259 = EDGE_LOOP ( 'NONE', ( #240 ) ) ;
#260 = FILL_AREA_STYLE_COLOUR ( '', #182 ) ;
#261 = ORIENTED_EDGE ( 'NONE', *, *, #279, .T. ) ;
#262 =( GEOMETRIC_REPRESENTATION_CONTEXT ( 3 ) GLOBAL_UNCERTAINTY_ASSIGNED_CONTEXT ( ( #238 ) ) GLOBAL_UNIT_ASSIGNED_CONTEXT ( ( #69, #97, #274 ) ) REPRESENTATION_CONTEXT ( 'NONE', 'WORKASPACE' ) );
#263 = CARTESIAN_POINT ( 'NONE',  ( 11.37500000000000000, 11.37500000000000178, 0.04000000000000000083 ) ) ;
#264 = EDGE_CURVE ( 'NONE', #199, #214, #135, .T. ) ;
#265 = DIRECTION ( 'NONE',  ( 1.000000000000000000, 0.000000000000000000, -0.000000000000000000 ) ) ;
#266 = EDGE_LOOP ( 'NONE', ( #216 ) ) ;
#267 = DIRECTION ( 'NONE',  ( 1.000000000000000000, 0.000000000000000000, 0.000000000000000000 ) ) ;
#268 =( GEOMETRIC_REPRESENTATION_CONTEXT ( 3 ) GLOBAL_UNCERTAINTY_ASSIGNED_CONTEXT ( ( #174 ) ) GLOBAL_UNIT_ASSIGNED_CONTEXT ( ( #63, #321, #157 ) ) REPRESENTATION_CONTEXT ( 'NONE', 'WORKASPACE' ) );
#269 = EDGE_LOOP ( 'NONE', ( #94 ) ) ;
#270 = ADVANCED_FACE ( 'NONE', ( #15 ), #322, .T. ) ;
#271 = DIRECTION ( 'NONE',  ( 1.000000000000000000, 0.000000000000000000, 0.000000000000000000 ) ) ;
#272 = CARTESIAN_POINT ( 'NONE',  ( -10.96849999999999881, -11.12499999999999822, 0.04000000000000000083 ) ) ;
#273 = ORIENTED_EDGE ( 'NONE', *, *, #121, .T. ) ;
#274 =( NAMED_UNIT ( * ) SI_UNIT ( $, .STERADIAN. ) SOLID_ANGLE_UNIT ( ) );
#275 = ORIENTED_EDGE ( 'NONE', *, *, #284, .F. ) ;
#276 = CIRCLE ( 'NONE', #315, 0.1565000000000003610 ) ;
#277 = LINE ( 'NONE', #95, #146 ) ;
#278 = ORIENTED_EDGE ( 'NONE', *, *, #254, .T. ) ;
#279 = EDGE_CURVE ( 'NONE', #236, #122, #161, .T. ) ;
#280 = CARTESIAN_POINT ( 'NONE',  ( -11.12499999999999822, -11.12499999999999822, 0.000000000000000000 ) ) ;
#281 = PLANE ( 'NONE',  #186 ) ;
#282 = AXIS2_PLACEMENT_3D ( 'NONE', #195, #242, #271 ) ;
#283 = DIRECTION ( 'NONE',  ( -0.000000000000000000, 1.000000000000000000, 0.000000000000000000 ) ) ;
#284 = EDGE_CURVE ( 'NONE', #122, #323, #159, .T. ) ;
#285 = DIRECTION ( 'NONE',  ( -0.000000000000000000, -0.000000000000000000, -1.000000000000000000 ) ) ;
#286 = PRODUCT ( 'BP2424A', 'BP2424A', '', ( #196 ) ) ;
#287 = DIRECTION ( 'NONE',  ( 0.000000000000000000, 0.000000000000000000, 1.000000000000000000 ) ) ;
#288 = AXIS2_PLACEMENT_3D ( 'NONE', #317, #6, #7 ) ;
#289 = VECTOR ( 'NONE', #265, 39.37007874015748143 ) ;
#290 = FACE_OUTER_BOUND ( 'NONE', #43, .T. ) ;
#291 = PRODUCT_DEFINITION ( 'UNKNOWN', '', #256, #124 ) ;
#292 = DIRECTION ( 'NONE',  ( 0.000000000000000000, 0.000000000000000000, 1.000000000000000000 ) ) ;
#293 = DIRECTION ( 'NONE',  ( -1.000000000000000000, 0.000000000000000000, 0.000000000000000000 ) ) ;
#294 = EDGE_LOOP ( 'NONE', ( #99 ) ) ;
#295 = AXIS2_PLACEMENT_3D ( 'NONE', #144, #148, #147 ) ;
#296 =( LENGTH_UNIT ( ) NAMED_UNIT ( * ) SI_UNIT ( $, .METRE. ) );
#297 = ORIENTED_EDGE ( 'NONE', *, *, #57, .F. ) ;
#298 = CARTESIAN_POINT ( 'NONE',  ( -6.993530863780510092E-16, -11.37500000000000000, 0.04000000000000000083 ) ) ;
#299 = VERTEX_POINT ( 'NONE', #263 ) ;
#300 = DIRECTION ( 'NONE',  ( -0.000000000000000000, -0.000000000000000000, -1.000000000000000000 ) ) ;
#301 = ORIENTED_EDGE ( 'NONE', *, *, #319, .T. ) ;
#302 = ORIENTED_EDGE ( 'NONE', *, *, #12, .T. ) ;
#303 = CARTESIAN_POINT ( 'NONE',  ( -10.96849999999999881, -11.12499999999999822, -0.04000000000000000083 ) ) ;
#304 = ORIENTED_EDGE ( 'NONE', *, *, #312, .T. ) ;
#305 = VERTEX_POINT ( 'NONE', #52 ) ;
#306 = ORIENTED_EDGE ( 'NONE', *, *, #309, .F. ) ;
#307 = VECTOR ( 'NONE', #183, 39.37007874015748143 ) ;
#308 = DIRECTION ( 'NONE',  ( 1.229631800225150020E-16, 1.000000000000000000, 0.000000000000000000 ) ) ;
#309 = EDGE_CURVE ( 'NONE', #214, #221, #42, .T. ) ;
#310 = DIRECTION ( 'NONE',  ( 1.000000000000000000, 0.000000000000000000, 0.000000000000000000 ) ) ;
#311 = LINE ( 'NONE', #257, #222 ) ;
#312 = EDGE_CURVE ( 'NONE', #169, #199, #277, .T. ) ;
#313 = DIRECTION ( 'NONE',  ( 0.000000000000000000, 0.000000000000000000, 1.000000000000000000 ) ) ;
#314 = AXIS2_PLACEMENT_3D ( 'NONE', #212, #293, #292 ) ;
#315 = AXIS2_PLACEMENT_3D ( 'NONE', #90, #300, #267 ) ;
#316 = DIRECTION ( 'NONE',  ( -1.000000000000000000, -2.459263600450290179E-16, 0.000000000000000000 ) ) ;
#317 = CARTESIAN_POINT ( 'NONE',  ( 11.37500000000000000, -11.37500000000000000, 0.000000000000000000 ) ) ;
#318 = DIRECTION ( 'NONE',  ( 0.000000000000000000, 0.000000000000000000, 1.000000000000000000 ) ) ;
#319 = EDGE_CURVE ( 'NONE', #241, #241, #276, .T. ) ;
#320 = DIRECTION ( 'NONE',  ( 1.000000000000000000, 0.000000000000000000, 0.000000000000000000 ) ) ;
#321 =( NAMED_UNIT ( * ) PLANE_ANGLE_UNIT ( ) SI_UNIT ( $, .RADIAN. ) );
#322 = PLANE ( 'NONE',  #314 ) ;
#323 = VERTEX_POINT ( 'NONE', #2 ) ;
#324 = CIRCLE ( 'NONE', #282, 0.1565000000000003610 ) ;
#325 = CARTESIAN_POINT ( 'NONE',  ( -11.37500000000000000, 1.144395959527719977E-15, 0.04000000000000000083 ) ) ;
#326 = APPLICATION_PROTOCOL_DEFINITION ( 'draft international standard', 'automotive_design', 1998, #28 ) ;
#327 = EDGE_LOOP ( 'NONE', ( #261, #158, #273, #191 ) ) ;
#328 = MECHANICAL_DESIGN_GEOMETRIC_PRESENTATION_REPRESENTATION (  '', ( #244 ), #268 ) ;
#329 = EDGE_LOOP ( 'NONE', ( #5 ) ) ;
ENDSEC;
END-ISO-10303-21;
