ISO-10303-21;
HEADER;
FILE_DESCRIPTION (( 'STEP AP214' ),
    '1' );
FILE_NAME ('BP2016A.STEP',
    '2023-12-20T19:31:16',
    ( '' ),
    ( '' ),
    'SwSTEP 2.0',
    'SolidWorks 2023',
    '' );
FILE_SCHEMA (( 'AUTOMOTIVE_DESIGN' ));
ENDSEC;

DATA;
#1 = SURFACE_STYLE_FILL_AREA ( #22 ) ;
#2 = VERTEX_POINT ( 'NONE', #253 ) ;
#3 =( LENGTH_UNIT ( ) NAMED_UNIT ( * ) SI_UNIT ( $, .METRE. ) );
#4 = AXIS2_PLACEMENT_3D ( 'NONE', #70, #170, #272 ) ;
#5 = ORIENTED_EDGE ( 'NONE', *, *, #90, .F. ) ;
#6 =( CONVERSION_BASED_UNIT ( 'INCH', #127 ) LENGTH_UNIT ( ) NAMED_UNIT ( #114 ) );
#7 = EDGE_LOOP ( 'NONE', ( #78 ) ) ;
#8 = PLANE ( 'NONE',  #161 ) ;
#9 = EDGE_LOOP ( 'NONE', ( #134, #59, #280, #263 ) ) ;
#10 = ORIENTED_EDGE ( 'NONE', *, *, #209, .T. ) ;
#11 = VERTEX_POINT ( 'NONE', #13 ) ;
#12 = CYLINDRICAL_SURFACE ( 'NONE', #29, 0.1250000000000004441 ) ;
#13 = CARTESIAN_POINT ( 'NONE',  ( -7.437499999999999112, -9.437499999999992895, -0.04000000000000000083 ) ) ;
#14 = VECTOR ( 'NONE', #198, 39.37007874015748143 ) ;
#15 = AXIS2_PLACEMENT_3D ( 'NONE', #193, #213, #62 ) ;
#16 = DIRECTION ( 'NONE',  ( -1.880613341520809977E-16, 1.000000000000000000, 0.000000000000000000 ) ) ;
#17 = LINE ( 'NONE', #191, #200 ) ;
#18 = EDGE_CURVE ( 'NONE', #11, #58, #17, .T. ) ;
#19 = DIRECTION ( 'NONE',  ( -0.000000000000000000, -0.000000000000000000, -1.000000000000000000 ) ) ;
#20 = CARTESIAN_POINT ( 'NONE',  ( -7.437499999999999112, 9.437499999999989342, 0.04000000000000000083 ) ) ;
#21 = DIMENSIONAL_EXPONENTS ( 1.000000000000000000, 0.000000000000000000, 0.000000000000000000, 0.000000000000000000, 0.000000000000000000, 0.000000000000000000, 0.000000000000000000 ) ;
#22 = FILL_AREA_STYLE ('',( #119 ) ) ;
#23 =( NAMED_UNIT ( * ) PLANE_ANGLE_UNIT ( ) SI_UNIT ( $, .RADIAN. ) );
#24 = DIRECTION ( 'NONE',  ( 1.000000000000000000, 0.000000000000000000, 0.000000000000000000 ) ) ;
#25 = FACE_OUTER_BOUND ( 'NONE', #315, .T. ) ;
#26 = CARTESIAN_POINT ( 'NONE',  ( -7.000000000000000000, 9.125000000000000000, -0.04000000000000000083 ) ) ;
#27 = ORIENTED_EDGE ( 'NONE', *, *, #324, .T. ) ;
#28 = DIRECTION ( 'NONE',  ( -0.000000000000000000, -0.000000000000000000, -1.000000000000000000 ) ) ;
#29 = AXIS2_PLACEMENT_3D ( 'NONE', #291, #117, #296 ) ;
#30 = EDGE_LOOP ( 'NONE', ( #81, #174, #229, #55 ) ) ;
#31 = CARTESIAN_POINT ( 'NONE',  ( -7.437499999999999112, -9.437499999999991118, 0.04000000000000000083 ) ) ;
#32 = EDGE_LOOP ( 'NONE', ( #84 ) ) ;
#33 = FACE_OUTER_BOUND ( 'NONE', #192, .T. ) ;
#34 = EDGE_LOOP ( 'NONE', ( #212 ) ) ;
#35 = DIRECTION ( 'NONE',  ( 1.000000000000000000, 0.000000000000000000, -0.000000000000000000 ) ) ;
#36 = CIRCLE ( 'NONE', #328, 0.1250000000000004441 ) ;
#37 = ORIENTED_EDGE ( 'NONE', *, *, #268, .F. ) ;
#38 = FACE_OUTER_BOUND ( 'NONE', #278, .T. ) ;
#39 = UNCERTAINTY_MEASURE_WITH_UNIT (LENGTH_MEASURE( 1.000000000000000082E-05 ), #6, 'distance_accuracy_value', 'NONE');
#40 = FACE_BOUND ( 'NONE', #234, .T. ) ;
#41 = CARTESIAN_POINT ( 'NONE',  ( 7.125000000000000000, 9.125000000000000000, 0.000000000000000000 ) ) ;
#42 = AXIS2_PLACEMENT_3D ( 'NONE', #233, #185, #210 ) ;
#43 = LINE ( 'NONE', #219, #251 ) ;
#44 = ADVANCED_FACE ( 'NONE', ( #136, #190 ), #65, .F. ) ;
#45 = ORIENTED_EDGE ( 'NONE', *, *, #197, .F. ) ;
#46 = AXIS2_PLACEMENT_3D ( 'NONE', #271, #267, #135 ) ;
#47 = SURFACE_SIDE_STYLE ('',( #1 ) ) ;
#48 = CARTESIAN_POINT ( 'NONE',  ( -7.437499999999999112, 9.437499999999991118, -0.04000000000000000083 ) ) ;
#49 = VECTOR ( 'NONE', #274, 39.37007874015748143 ) ;
#50 = PLANE ( 'NONE',  #299 ) ;
#51 = PRODUCT_DEFINITION_SHAPE ( 'NONE', 'NONE',  #122 ) ;
#52 = FACE_BOUND ( 'NONE', #106, .T. ) ;
#53 = ORIENTED_EDGE ( 'NONE', *, *, #241, .F. ) ;
#54 = VERTEX_POINT ( 'NONE', #26 ) ;
#55 = ORIENTED_EDGE ( 'NONE', *, *, #242, .T. ) ;
#56 = CARTESIAN_POINT ( 'NONE',  ( -7.125000000000000000, -9.125000000000000000, 0.04000000000000000083 ) ) ;
#57 = VECTOR ( 'NONE', #97, 39.37007874015748143 ) ;
#58 = VERTEX_POINT ( 'NONE', #63 ) ;
#59 = ORIENTED_EDGE ( 'NONE', *, *, #242, .F. ) ;
#60 =( NAMED_UNIT ( * ) SI_UNIT ( $, .STERADIAN. ) SOLID_ANGLE_UNIT ( ) );
#61 = ORIENTED_EDGE ( 'NONE', *, *, #173, .F. ) ;
#62 = DIRECTION ( 'NONE',  ( 1.000000000000000000, 0.000000000000000000, 0.000000000000000000 ) ) ;
#63 = CARTESIAN_POINT ( 'NONE',  ( 7.437499999999999112, -9.437499999999998224, -0.04000000000000000083 ) ) ;
#64 = DIRECTION ( 'NONE',  ( -0.000000000000000000, -1.000000000000000000, -0.000000000000000000 ) ) ;
#65 = CYLINDRICAL_SURFACE ( 'NONE', #189, 0.1250000000000004441 ) ;
#66 = DIRECTION ( 'NONE',  ( 0.000000000000000000, 1.000000000000000000, -0.000000000000000000 ) ) ;
#67 = ADVANCED_FACE ( 'NONE', ( #38, #164 ), #12, .F. ) ;
#68 = DIRECTION ( 'NONE',  ( 0.000000000000000000, 0.000000000000000000, -1.000000000000000000 ) ) ;
#69 =( NAMED_UNIT ( * ) SI_UNIT ( $, .STERADIAN. ) SOLID_ANGLE_UNIT ( ) );
#70 = CARTESIAN_POINT ( 'NONE',  ( 7.125000000000000000, -9.125000000000000000, 0.04000000000000000083 ) ) ;
#71 = COLOUR_RGB ( '',0.7921568627450980005, 0.8196078431372548767, 0.9333333333333333481 ) ;
#72 = CARTESIAN_POINT ( 'NONE',  ( -1.049029629567079916E-15, 9.437500000000000000, -0.04000000000000000083 ) ) ;
#73 = DIRECTION ( 'NONE',  ( -1.000000000000000000, 0.000000000000000000, 0.000000000000000000 ) ) ;
#74 = CARTESIAN_POINT ( 'NONE',  ( -7.437499999999999112, 9.437499999999994671, 0.04000000000000000083 ) ) ;
#75 = EDGE_CURVE ( 'NONE', #289, #207, #162, .T. ) ;
#76 = DIRECTION ( 'NONE',  ( -1.880613341520809977E-16, -1.000000000000000000, 0.000000000000000000 ) ) ;
#77 = CARTESIAN_POINT ( 'NONE',  ( 7.250000000000000888, 9.125000000000000000, 0.04000000000000000083 ) ) ;
#78 = ORIENTED_EDGE ( 'NONE', *, *, #302, .F. ) ;
#79 = EDGE_LOOP ( 'NONE', ( #104, #45, #5, #211 ) ) ;
#80 = LINE ( 'NONE', #304, #305 ) ;
#81 = ORIENTED_EDGE ( 'NONE', *, *, #225, .T. ) ;
#82 = PLANE ( 'NONE',  #138 ) ;
#83 = ORIENTED_EDGE ( 'NONE', *, *, #147, .F. ) ;
#84 = ORIENTED_EDGE ( 'NONE', *, *, #142, .F. ) ;
#85 = PRODUCT_RELATED_PRODUCT_CATEGORY ( 'part', '', ( #100 ) ) ;
#86 = AXIS2_PLACEMENT_3D ( 'NONE', #113, #217, #321 ) ;
#87 = DIRECTION ( 'NONE',  ( 1.000000000000000000, 0.000000000000000000, 0.000000000000000000 ) ) ;
#88 = CARTESIAN_POINT ( 'NONE',  ( 7.437499999999999112, 9.437500000000000000, 0.000000000000000000 ) ) ;
#89 = ADVANCED_FACE ( 'NONE', ( #266 ), #116, .T. ) ;
#90 = EDGE_CURVE ( 'NONE', #109, #254, #240, .T. ) ;
#91 = FACE_OUTER_BOUND ( 'NONE', #214, .T. ) ;
#92 = PLANE ( 'NONE',  #313 ) ;
#93 = AXIS2_PLACEMENT_3D ( 'NONE', #228, #94, #129 ) ;
#94 = DIRECTION ( 'NONE',  ( 0.000000000000000000, 0.000000000000000000, 1.000000000000000000 ) ) ;
#95 = SURFACE_STYLE_USAGE ( .BOTH. , #47 ) ;
#96 = LINE ( 'NONE', #150, #276 ) ;
#97 = DIRECTION ( 'NONE',  ( 1.000000000000000000, 1.880613341520809977E-16, -0.000000000000000000 ) ) ;
#98 = EDGE_CURVE ( 'NONE', #309, #289, #43, .T. ) ;
#99 = VERTEX_POINT ( 'NONE', #205 ) ;
#100 = PRODUCT ( 'BP2016A', 'BP2016A', '', ( #220 ) ) ;
#101 = CIRCLE ( 'NONE', #86, 0.1250000000000004441 ) ;
#102 = CARTESIAN_POINT ( 'NONE',  ( -1.049029629567079916E-15, -2.074512017168559737E-16, -0.04000000000000000083 ) ) ;
#103 = EDGE_LOOP ( 'NONE', ( #317, #152, #308, #206 ) ) ;
#104 = ORIENTED_EDGE ( 'NONE', *, *, #98, .F. ) ;
#105 = CARTESIAN_POINT ( 'NONE',  ( -7.000000000000000000, 9.125000000000000000, 0.04000000000000000083 ) ) ;
#106 = EDGE_LOOP ( 'NONE', ( #236 ) ) ;
#107 = APPLICATION_PROTOCOL_DEFINITION ( 'draft international standard', 'automotive_design', 1998, #115 ) ;
#108 = EDGE_LOOP ( 'NONE', ( #286 ) ) ;
#109 = VERTEX_POINT ( 'NONE', #297 ) ;
#110 = EDGE_CURVE ( 'NONE', #133, #133, #230, .T. ) ;
#111 = FACE_BOUND ( 'NONE', #243, .T. ) ;
#112 =( GEOMETRIC_REPRESENTATION_CONTEXT ( 3 ) GLOBAL_UNCERTAINTY_ASSIGNED_CONTEXT ( ( #163 ) ) GLOBAL_UNIT_ASSIGNED_CONTEXT ( ( #120, #23, #69 ) ) REPRESENTATION_CONTEXT ( 'NONE', 'WORKASPACE' ) );
#113 = CARTESIAN_POINT ( 'NONE',  ( -7.125000000000000000, 9.125000000000000000, 0.04000000000000000083 ) ) ;
#114 = DIMENSIONAL_EXPONENTS ( 1.000000000000000000, 0.000000000000000000, 0.000000000000000000, 0.000000000000000000, 0.000000000000000000, 0.000000000000000000, 0.000000000000000000 ) ;
#115 = APPLICATION_CONTEXT ( 'automotive_design' ) ;
#116 = PLANE ( 'NONE',  #245 ) ;
#117 = DIRECTION ( 'NONE',  ( 0.000000000000000000, 0.000000000000000000, 1.000000000000000000 ) ) ;
#118 = FACE_OUTER_BOUND ( 'NONE', #79, .T. ) ;
#119 = FILL_AREA_STYLE_COLOUR ( '', #71 ) ;
#120 =( CONVERSION_BASED_UNIT ( 'INCH', #144 ) LENGTH_UNIT ( ) NAMED_UNIT ( #21 ) );
#121 = AXIS2_PLACEMENT_3D ( 'NONE', #318, #320, #238 ) ;
#122 = PRODUCT_DEFINITION ( 'UNKNOWN', '', #306, #287 ) ;
#123 = ADVANCED_FACE ( 'NONE', ( #40, #111, #140, #215, #118 ), #165, .T. ) ;
#124 = CARTESIAN_POINT ( 'NONE',  ( 7.437499999999999112, -9.437499999999994671, 0.04000000000000000083 ) ) ;
#125 = CYLINDRICAL_SURFACE ( 'NONE', #93, 0.1250000000000004441 ) ;
#126 = ORIENTED_EDGE ( 'NONE', *, *, #18, .F. ) ;
#127 = LENGTH_MEASURE_WITH_UNIT ( LENGTH_MEASURE( 0.02539999999999999897 ), #3 );
#128 = EDGE_LOOP ( 'NONE', ( #160 ) ) ;
#129 = DIRECTION ( 'NONE',  ( 1.000000000000000000, 0.000000000000000000, 0.000000000000000000 ) ) ;
#130 = EDGE_LOOP ( 'NONE', ( #179 ) ) ;
#131 = ORIENTED_EDGE ( 'NONE', *, *, #142, .T. ) ;
#132 = AXIS2_PLACEMENT_3D ( 'NONE', #148, #326, #24 ) ;
#133 = VERTEX_POINT ( 'NONE', #77 ) ;
#134 = ORIENTED_EDGE ( 'NONE', *, *, #18, .T. ) ;
#135 = DIRECTION ( 'NONE',  ( 1.000000000000000000, 0.000000000000000000, 0.000000000000000000 ) ) ;
#136 = FACE_OUTER_BOUND ( 'NONE', #32, .T. ) ;
#137 = ADVANCED_FACE ( 'NONE', ( #141, #91 ), #169, .F. ) ;
#138 = AXIS2_PLACEMENT_3D ( 'NONE', #307, #76, #177 ) ;
#139 = DIRECTION ( 'NONE',  ( 1.000000000000000000, 0.000000000000000000, 0.000000000000000000 ) ) ;
#140 = FACE_BOUND ( 'NONE', #108, .T. ) ;
#141 = FACE_OUTER_BOUND ( 'NONE', #34, .T. ) ;
#142 = EDGE_CURVE ( 'NONE', #279, #279, #101, .T. ) ;
#143 = DIRECTION ( 'NONE',  ( 0.000000000000000000, 0.000000000000000000, 1.000000000000000000 ) ) ;
#144 = LENGTH_MEASURE_WITH_UNIT ( LENGTH_MEASURE( 0.02539999999999999897 ), #224 );
#145 = APPLICATION_CONTEXT ( 'automotive_design' ) ;
#146 = ADVANCED_FACE ( 'NONE', ( #319 ), #92, .T. ) ;
#147 = EDGE_CURVE ( 'NONE', #207, #11, #223, .T. ) ;
#148 = CARTESIAN_POINT ( 'NONE',  ( -7.125000000000000000, 9.125000000000000000, -0.04000000000000000083 ) ) ;
#149 = VECTOR ( 'NONE', #172, 39.37007874015748143 ) ;
#150 = CARTESIAN_POINT ( 'NONE',  ( 7.437499999999999112, -9.437500000000000000, 0.04000000000000000083 ) ) ;
#151 = CARTESIAN_POINT ( 'NONE',  ( 7.250000000000000888, -9.125000000000000000, 0.04000000000000000083 ) ) ;
#152 = ORIENTED_EDGE ( 'NONE', *, *, #75, .F. ) ;
#153 = FACE_BOUND ( 'NONE', #130, .T. ) ;
#154 = ORIENTED_EDGE ( 'NONE', *, *, #98, .T. ) ;
#155 = CIRCLE ( 'NONE', #194, 0.1250000000000004441 ) ;
#156 = DIRECTION ( 'NONE',  ( -0.000000000000000000, -0.000000000000000000, -1.000000000000000000 ) ) ;
#157 = ORIENTED_EDGE ( 'NONE', *, *, #173, .T. ) ;
#158 = EDGE_LOOP ( 'NONE', ( #312 ) ) ;
#159 = DIRECTION ( 'NONE',  ( 1.000000000000000000, 0.000000000000000000, 0.000000000000000000 ) ) ;
#160 = ORIENTED_EDGE ( 'NONE', *, *, #300, .F. ) ;
#161 = AXIS2_PLACEMENT_3D ( 'NONE', #102, #231, #35 ) ;
#162 = LINE ( 'NONE', #168, #269 ) ;
#163 = UNCERTAINTY_MEASURE_WITH_UNIT (LENGTH_MEASURE( 1.000000000000000082E-05 ), #120, 'distance_accuracy_value', 'NONE');
#164 = FACE_OUTER_BOUND ( 'NONE', #235, .T. ) ;
#165 = PLANE ( 'NONE',  #121 ) ;
#166 = AXIS2_PLACEMENT_3D ( 'NONE', #255, #259, #204 ) ;
#167 = CIRCLE ( 'NONE', #42, 0.1250000000000004441 ) ;
#168 = CARTESIAN_POINT ( 'NONE',  ( -7.437499999999999112, 9.437499999999989342, 0.000000000000000000 ) ) ;
#169 = CYLINDRICAL_SURFACE ( 'NONE', #264, 0.1250000000000004441 ) ;
#170 = DIRECTION ( 'NONE',  ( -0.000000000000000000, -0.000000000000000000, -1.000000000000000000 ) ) ;
#171 = LINE ( 'NONE', #72, #239 ) ;
#172 = DIRECTION ( 'NONE',  ( 0.000000000000000000, -1.000000000000000000, -0.000000000000000000 ) ) ;
#173 = EDGE_CURVE ( 'NONE', #178, #178, #181, .T. ) ;
#174 = ORIENTED_EDGE ( 'NONE', *, *, #316, .F. ) ;
#175 = LINE ( 'NONE', #275, #49 ) ;
#176 = PRESENTATION_LAYER_ASSIGNMENT (  '', '', ( #284 ) ) ;
#177 = DIRECTION ( 'NONE',  ( 1.000000000000000000, -1.880613341520809977E-16, 0.000000000000000000 ) ) ;
#178 = VERTEX_POINT ( 'NONE', #151 ) ;
#179 = ORIENTED_EDGE ( 'NONE', *, *, #324, .F. ) ;
#180 = ORIENTED_EDGE ( 'NONE', *, *, #75, .T. ) ;
#181 = CIRCLE ( 'NONE', #4, 0.1250000000000004441 ) ;
#182 = CARTESIAN_POINT ( 'NONE',  ( -7.000000000000000000, -9.125000000000000000, 0.04000000000000000083 ) ) ;
#183 = EDGE_CURVE ( 'NONE', #11, #309, #246, .T. ) ;
#184 = EDGE_LOOP ( 'NONE', ( #232, #283, #154, #180 ) ) ;
#185 = DIRECTION ( 'NONE',  ( -0.000000000000000000, -0.000000000000000000, -1.000000000000000000 ) ) ;
#186 = EDGE_LOOP ( 'NONE', ( #157 ) ) ;
#187 = APPLICATION_PROTOCOL_DEFINITION ( 'draft international standard', 'automotive_design', 1998, #145 ) ;
#188 = DIRECTION ( 'NONE',  ( 1.000000000000000000, 0.000000000000000000, -0.000000000000000000 ) ) ;
#189 = AXIS2_PLACEMENT_3D ( 'NONE', #293, #237, #139 ) ;
#190 = FACE_OUTER_BOUND ( 'NONE', #158, .T. ) ;
#191 = CARTESIAN_POINT ( 'NONE',  ( -1.049029629567079916E-15, -9.437499999999989342, -0.04000000000000000083 ) ) ;
#192 = EDGE_LOOP ( 'NONE', ( #37, #249, #126, #83 ) ) ;
#193 = CARTESIAN_POINT ( 'NONE',  ( 0.000000000000000000, 0.000000000000000000, 0.000000000000000000 ) ) ;
#194 = AXIS2_PLACEMENT_3D ( 'NONE', #329, #226, #199 ) ;
#195 =( GEOMETRIC_REPRESENTATION_CONTEXT ( 3 ) GLOBAL_UNCERTAINTY_ASSIGNED_CONTEXT ( ( #39 ) ) GLOBAL_UNIT_ASSIGNED_CONTEXT ( ( #6, #314, #60 ) ) REPRESENTATION_CONTEXT ( 'NONE', 'WORKASPACE' ) );
#196 = DIRECTION ( 'NONE',  ( 1.000000000000000000, -0.000000000000000000, 0.000000000000000000 ) ) ;
#197 = EDGE_CURVE ( 'NONE', #254, #309, #96, .T. ) ;
#198 = DIRECTION ( 'NONE',  ( 0.000000000000000000, 0.000000000000000000, -1.000000000000000000 ) ) ;
#199 = DIRECTION ( 'NONE',  ( 1.000000000000000000, 0.000000000000000000, 0.000000000000000000 ) ) ;
#200 = VECTOR ( 'NONE', #188, 39.37007874015748143 ) ;
#201 = PRESENTATION_STYLE_ASSIGNMENT (( #95 ) ) ;
#202 = CARTESIAN_POINT ( 'NONE',  ( 7.437499999999999112, 9.437499999999998224, -0.04000000000000000083 ) ) ;
#203 = MANIFOLD_SOLID_BREP ( 'Solid1', #222 ) ;
#204 = DIRECTION ( 'NONE',  ( 1.000000000000000000, 0.000000000000000000, 0.000000000000000000 ) ) ;
#205 = CARTESIAN_POINT ( 'NONE',  ( 7.250000000000000888, -9.125000000000000000, -0.04000000000000000083 ) ) ;
#206 = ORIENTED_EDGE ( 'NONE', *, *, #316, .T. ) ;
#207 = VERTEX_POINT ( 'NONE', #48 ) ;
#208 = ADVANCED_FACE ( 'NONE', ( #250 ), #50, .T. ) ;
#209 = EDGE_CURVE ( 'NONE', #2, #2, #155, .T. ) ;
#210 = DIRECTION ( 'NONE',  ( 1.000000000000000000, 0.000000000000000000, 0.000000000000000000 ) ) ;
#211 = ORIENTED_EDGE ( 'NONE', *, *, #257, .F. ) ;
#212 = ORIENTED_EDGE ( 'NONE', *, *, #110, .F. ) ;
#213 = DIRECTION ( 'NONE',  ( 0.000000000000000000, 0.000000000000000000, 1.000000000000000000 ) ) ;
#214 = EDGE_LOOP ( 'NONE', ( #10 ) ) ;
#215 = FACE_BOUND ( 'NONE', #186, .T. ) ;
#216 = VECTOR ( 'NONE', #247, 39.37007874015748143 ) ;
#217 = DIRECTION ( 'NONE',  ( -0.000000000000000000, -0.000000000000000000, -1.000000000000000000 ) ) ;
#218 = SHAPE_DEFINITION_REPRESENTATION ( #51, #282 ) ;
#219 = CARTESIAN_POINT ( 'NONE',  ( -7.437499999999999112, -9.437499999999989342, 0.04000000000000000083 ) ) ;
#220 = PRODUCT_CONTEXT ( 'NONE', #115, 'mechanical' ) ;
#221 = DIRECTION ( 'NONE',  ( 0.000000000000000000, 0.000000000000000000, 1.000000000000000000 ) ) ;
#222 = CLOSED_SHELL ( 'NONE', ( #327, #290, #44, #137, #67, #208, #89, #146, #294, #123 ) ) ;
#223 = LINE ( 'NONE', #295, #149 ) ;
#224 =( LENGTH_UNIT ( ) NAMED_UNIT ( * ) SI_UNIT ( $, .METRE. ) );
#225 = EDGE_CURVE ( 'NONE', #58, #261, #175, .T. ) ;
#226 = DIRECTION ( 'NONE',  ( -0.000000000000000000, -0.000000000000000000, -1.000000000000000000 ) ) ;
#227 = LINE ( 'NONE', #20, #57 ) ;
#228 = CARTESIAN_POINT ( 'NONE',  ( -7.125000000000000000, -9.125000000000000000, 0.000000000000000000 ) ) ;
#229 = ORIENTED_EDGE ( 'NONE', *, *, #90, .T. ) ;
#230 = CIRCLE ( 'NONE', #46, 0.1250000000000004441 ) ;
#231 = DIRECTION ( 'NONE',  ( 0.000000000000000000, 0.000000000000000000, 1.000000000000000000 ) ) ;
#232 = ORIENTED_EDGE ( 'NONE', *, *, #147, .T. ) ;
#233 = CARTESIAN_POINT ( 'NONE',  ( -7.125000000000000000, -9.125000000000000000, -0.04000000000000000083 ) ) ;
#234 = EDGE_LOOP ( 'NONE', ( #260 ) ) ;
#235 = EDGE_LOOP ( 'NONE', ( #323 ) ) ;
#236 = ORIENTED_EDGE ( 'NONE', *, *, #209, .F. ) ;
#237 = DIRECTION ( 'NONE',  ( 0.000000000000000000, 0.000000000000000000, 1.000000000000000000 ) ) ;
#238 = DIRECTION ( 'NONE',  ( 1.000000000000000000, 0.000000000000000000, -0.000000000000000000 ) ) ;
#239 = VECTOR ( 'NONE', #273, 39.37007874015748143 ) ;
#240 = LINE ( 'NONE', #244, #258 ) ;
#241 = EDGE_CURVE ( 'NONE', #54, #54, #311, .T. ) ;
#242 = EDGE_CURVE ( 'NONE', #254, #58, #303, .T. ) ;
#243 = EDGE_LOOP ( 'NONE', ( #131 ) ) ;
#244 = CARTESIAN_POINT ( 'NONE',  ( 7.437499999999999112, 9.437500000000000000, 0.04000000000000000083 ) ) ;
#245 = AXIS2_PLACEMENT_3D ( 'NONE', #265, #16, #270 ) ;
#246 = LINE ( 'NONE', #248, #216 ) ;
#247 = DIRECTION ( 'NONE',  ( 0.000000000000000000, 0.000000000000000000, 1.000000000000000000 ) ) ;
#248 = CARTESIAN_POINT ( 'NONE',  ( -7.437499999999999112, -9.437499999999989342, 0.000000000000000000 ) ) ;
#249 = ORIENTED_EDGE ( 'NONE', *, *, #225, .F. ) ;
#250 = FACE_OUTER_BOUND ( 'NONE', #184, .T. ) ;
#251 = VECTOR ( 'NONE', #66, 39.37007874015748143 ) ;
#252 = FACE_OUTER_BOUND ( 'NONE', #7, .T. ) ;
#253 = CARTESIAN_POINT ( 'NONE',  ( 7.250000000000000888, 9.125000000000000000, -0.04000000000000000083 ) ) ;
#254 = VERTEX_POINT ( 'NONE', #124 ) ;
#255 = CARTESIAN_POINT ( 'NONE',  ( 7.125000000000000000, -9.125000000000000000, -0.04000000000000000083 ) ) ;
#256 = EDGE_LOOP ( 'NONE', ( #53 ) ) ;
#257 = EDGE_CURVE ( 'NONE', #289, #109, #227, .T. ) ;
#258 = VECTOR ( 'NONE', #64, 39.37007874015748143 ) ;
#259 = DIRECTION ( 'NONE',  ( -0.000000000000000000, -0.000000000000000000, -1.000000000000000000 ) ) ;
#260 = ORIENTED_EDGE ( 'NONE', *, *, #302, .T. ) ;
#261 = VERTEX_POINT ( 'NONE', #202 ) ;
#262 = FACE_BOUND ( 'NONE', #128, .T. ) ;
#263 = ORIENTED_EDGE ( 'NONE', *, *, #183, .F. ) ;
#264 = AXIS2_PLACEMENT_3D ( 'NONE', #41, #221, #87 ) ;
#265 = CARTESIAN_POINT ( 'NONE',  ( -7.437499999999999112, 9.437499999999989342, 0.000000000000000000 ) ) ;
#266 = FACE_OUTER_BOUND ( 'NONE', #103, .T. ) ;
#267 = DIRECTION ( 'NONE',  ( -0.000000000000000000, -0.000000000000000000, -1.000000000000000000 ) ) ;
#268 = EDGE_CURVE ( 'NONE', #261, #207, #171, .T. ) ;
#269 = VECTOR ( 'NONE', #19, 39.37007874015748143 ) ;
#270 = DIRECTION ( 'NONE',  ( -1.000000000000000000, -1.880613341520809977E-16, 0.000000000000000000 ) ) ;
#271 = CARTESIAN_POINT ( 'NONE',  ( 7.125000000000000000, 9.125000000000000000, 0.04000000000000000083 ) ) ;
#272 = DIRECTION ( 'NONE',  ( 1.000000000000000000, 0.000000000000000000, 0.000000000000000000 ) ) ;
#273 = DIRECTION ( 'NONE',  ( -1.000000000000000000, -0.000000000000000000, 0.000000000000000000 ) ) ;
#274 = DIRECTION ( 'NONE',  ( -0.000000000000000000, 1.000000000000000000, 0.000000000000000000 ) ) ;
#275 = CARTESIAN_POINT ( 'NONE',  ( 7.437499999999999112, -2.074512017168559737E-16, -0.04000000000000000083 ) ) ;
#276 = VECTOR ( 'NONE', #298, 39.37007874015748143 ) ;
#277 = FACE_BOUND ( 'NONE', #256, .T. ) ;
#278 = EDGE_LOOP ( 'NONE', ( #61 ) ) ;
#279 = VERTEX_POINT ( 'NONE', #105 ) ;
#280 = ORIENTED_EDGE ( 'NONE', *, *, #197, .T. ) ;
#281 = FACE_OUTER_BOUND ( 'NONE', #9, .T. ) ;
#282 = ADVANCED_BREP_SHAPE_REPRESENTATION ( 'BP2016A', ( #203, #15 ), #195 ) ;
#283 = ORIENTED_EDGE ( 'NONE', *, *, #183, .T. ) ;
#284 = STYLED_ITEM ( 'NONE', ( #201 ), #203 ) ;
#285 = CARTESIAN_POINT ( 'NONE',  ( -7.000000000000000000, -9.125000000000000000, -0.04000000000000000083 ) ) ;
#286 = ORIENTED_EDGE ( 'NONE', *, *, #110, .T. ) ;
#287 = PRODUCT_DEFINITION_CONTEXT ( 'detailed design', #145, 'design' ) ;
#288 = VERTEX_POINT ( 'NONE', #285 ) ;
#289 = VERTEX_POINT ( 'NONE', #74 ) ;
#290 = ADVANCED_FACE ( 'NONE', ( #252, #25 ), #125, .F. ) ;
#291 = CARTESIAN_POINT ( 'NONE',  ( 7.125000000000000000, -9.125000000000000000, 0.000000000000000000 ) ) ;
#292 = MECHANICAL_DESIGN_GEOMETRIC_PRESENTATION_REPRESENTATION (  '', ( #284 ), #112 ) ;
#293 = CARTESIAN_POINT ( 'NONE',  ( -7.125000000000000000, 9.125000000000000000, 0.000000000000000000 ) ) ;
#294 = ADVANCED_FACE ( 'NONE', ( #281 ), #82, .T. ) ;
#295 = CARTESIAN_POINT ( 'NONE',  ( -7.437499999999999112, -2.074512017168559737E-16, -0.04000000000000000083 ) ) ;
#296 = DIRECTION ( 'NONE',  ( 1.000000000000000000, 0.000000000000000000, 0.000000000000000000 ) ) ;
#297 = CARTESIAN_POINT ( 'NONE',  ( 7.437499999999999112, 9.437499999999998224, 0.04000000000000000083 ) ) ;
#298 = DIRECTION ( 'NONE',  ( -1.000000000000000000, 1.880613341520809977E-16, -0.000000000000000000 ) ) ;
#299 = AXIS2_PLACEMENT_3D ( 'NONE', #301, #73, #143 ) ;
#300 = EDGE_CURVE ( 'NONE', #99, #99, #322, .T. ) ;
#301 = CARTESIAN_POINT ( 'NONE',  ( -7.437499999999999112, -9.437499999999989342, 0.000000000000000000 ) ) ;
#302 = EDGE_CURVE ( 'NONE', #310, #310, #36, .T. ) ;
#303 = LINE ( 'NONE', #325, #14 ) ;
#304 = CARTESIAN_POINT ( 'NONE',  ( 7.437499999999999112, 9.437499999999992895, 0.000000000000000000 ) ) ;
#305 = VECTOR ( 'NONE', #28, 39.37007874015748143 ) ;
#306 = PRODUCT_DEFINITION_FORMATION_WITH_SPECIFIED_SOURCE ( 'ANY', '', #100, .NOT_KNOWN. ) ;
#307 = CARTESIAN_POINT ( 'NONE',  ( 7.437499999999999112, -9.437500000000000000, 0.000000000000000000 ) ) ;
#308 = ORIENTED_EDGE ( 'NONE', *, *, #257, .T. ) ;
#309 = VERTEX_POINT ( 'NONE', #31 ) ;
#310 = VERTEX_POINT ( 'NONE', #182 ) ;
#311 = CIRCLE ( 'NONE', #132, 0.1250000000000004441 ) ;
#312 = ORIENTED_EDGE ( 'NONE', *, *, #241, .T. ) ;
#313 = AXIS2_PLACEMENT_3D ( 'NONE', #88, #196, #68 ) ;
#314 =( NAMED_UNIT ( * ) PLANE_ANGLE_UNIT ( ) SI_UNIT ( $, .RADIAN. ) );
#315 = EDGE_LOOP ( 'NONE', ( #27 ) ) ;
#316 = EDGE_CURVE ( 'NONE', #109, #261, #80, .T. ) ;
#317 = ORIENTED_EDGE ( 'NONE', *, *, #268, .T. ) ;
#318 = CARTESIAN_POINT ( 'NONE',  ( -1.049029629567079916E-15, -4.919018846611950109E-16, 0.04000000000000000083 ) ) ;
#319 = FACE_OUTER_BOUND ( 'NONE', #30, .T. ) ;
#320 = DIRECTION ( 'NONE',  ( 0.000000000000000000, 0.000000000000000000, 1.000000000000000000 ) ) ;
#321 = DIRECTION ( 'NONE',  ( 1.000000000000000000, 0.000000000000000000, 0.000000000000000000 ) ) ;
#322 = CIRCLE ( 'NONE', #166, 0.1250000000000004441 ) ;
#323 = ORIENTED_EDGE ( 'NONE', *, *, #300, .T. ) ;
#324 = EDGE_CURVE ( 'NONE', #288, #288, #167, .T. ) ;
#325 = CARTESIAN_POINT ( 'NONE',  ( 7.437499999999999112, -9.437500000000000000, 0.000000000000000000 ) ) ;
#326 = DIRECTION ( 'NONE',  ( -0.000000000000000000, -0.000000000000000000, -1.000000000000000000 ) ) ;
#327 = ADVANCED_FACE ( 'NONE', ( #153, #277, #52, #262, #33 ), #8, .F. ) ;
#328 = AXIS2_PLACEMENT_3D ( 'NONE', #56, #156, #159 ) ;
#329 = CARTESIAN_POINT ( 'NONE',  ( 7.125000000000000000, 9.125000000000000000, -0.04000000000000000083 ) ) ;
ENDSEC;
END-ISO-10303-21;
