ISO-10303-21;
HEADER;
FILE_DESCRIPTION (( 'STEP AP203' ),
    '1' );
FILE_NAME ('BP1816ABS_Default.step',
    '2023-12-20T19:43:46',
    ( 'Windows User' ),
    ( 'AUTOMATION DIRECT' ),
    'SwSTEP 2.0',
    'SolidWorks 2023',
    '' );
FILE_SCHEMA (( 'CONFIG_CONTROL_DESIGN' ));
ENDSEC;

DATA;
#1 = CALENDAR_DATE ( 2023, 20, 12 ) ;
#2 = CARTESIAN_POINT ( 'NONE',  ( 7.250000000000000888, 8.125000000000000000, 0.1150000000000000050 ) ) ;
#3 = MECHANICAL_CONTEXT ( 'NONE', #205, 'mechanical' ) ;
#4 = APPROVAL_PERSON_ORGANIZATION ( #352, #360, #89 ) ;
#5 = DIRECTION ( 'NONE',  ( -1.000000000000000000, 0.000000000000000000, 0.000000000000000000 ) ) ;
#6 = APPROVAL_STATUS ( 'not_yet_approved' ) ;
#7 = VERTEX_POINT ( 'NONE', #145 ) ;
#8 = EDGE_CURVE ( 'NONE', #169, #174, #312, .T. ) ;
#9 = CARTESIAN_POINT ( 'NONE',  ( 7.125000000000000000, -8.125000000000000000, 0.1150000000000000050 ) ) ;
#10 = ADVANCED_FACE ( 'NONE', ( #348 ), #111, .T. ) ;
#11 = CARTESIAN_POINT ( 'NONE',  ( 7.250000000000000888, -8.125000000000000000, -0.1150000000000000050 ) ) ;
#12 = ORGANIZATION ( 'UNSPECIFIED', 'UNSPECIFIED', '' ) ;
#13 = CARTESIAN_POINT ( 'NONE',  ( 7.125000000000000000, 8.125000000000000000, 0.1150000000000000050 ) ) ;
#14 = DIRECTION ( 'NONE',  ( -0.000000000000000000, -0.000000000000000000, -1.000000000000000000 ) ) ;
#15 = AXIS2_PLACEMENT_3D ( 'NONE', #38, #5, #126 ) ;
#16 = PRODUCT_DEFINITION_FORMATION_WITH_SPECIFIED_SOURCE ( 'ANY', '', #72, .NOT_KNOWN. ) ;
#17 = DIRECTION ( 'NONE',  ( 1.000000000000000000, 0.000000000000000000, 0.000000000000000000 ) ) ;
#18 = DIRECTION ( 'NONE',  ( 1.000000000000000000, 0.000000000000000000, 0.000000000000000000 ) ) ;
#19 = EDGE_LOOP ( 'NONE', ( #250 ) ) ;
#20 = DIRECTION ( 'NONE',  ( 1.000000000000000000, 0.000000000000000000, 0.000000000000000000 ) ) ;
#21 = EDGE_LOOP ( 'NONE', ( #133 ) ) ;
#22 = ORIENTED_EDGE ( 'NONE', *, *, #106, .F. ) ;
#23 = CC_DESIGN_PERSON_AND_ORGANIZATION_ASSIGNMENT ( #181, #290, ( #73 ) ) ;
#24 = EDGE_LOOP ( 'NONE', ( #204 ) ) ;
#25 = EDGE_LOOP ( 'NONE', ( #170, #232, #225, #308 ) ) ;
#26 = VECTOR ( 'NONE', #54, 39.37007874015748143 ) ;
#27 = CARTESIAN_POINT ( 'NONE',  ( 7.375000000000000000, 8.375000000000003553, 0.000000000000000000 ) ) ;
#28 = FACE_BOUND ( 'NONE', #231, .T. ) ;
#29 = CYLINDRICAL_SURFACE ( 'NONE', #99, 0.1250000000000004441 ) ;
#30 = CALENDAR_DATE ( 2023, 20, 12 ) ;
#31 = EDGE_LOOP ( 'NONE', ( #311 ) ) ;
#32 = COORDINATED_UNIVERSAL_TIME_OFFSET ( 5, 0, .BEHIND. ) ;
#33 = CIRCLE ( 'NONE', #209, 0.1250000000000004441 ) ;
#34 = DIRECTION ( 'NONE',  ( 1.000000000000000000, 0.000000000000000000, 0.000000000000000000 ) ) ;
#35 = EDGE_LOOP ( 'NONE', ( #291 ) ) ;
#36 = CC_DESIGN_DATE_AND_TIME_ASSIGNMENT ( #178, #287, ( #195 ) ) ;
#37 = APPLICATION_CONTEXT ( 'configuration controlled 3d designs of mechanical parts and assemblies' ) ;
#38 = CARTESIAN_POINT ( 'NONE',  ( -7.375000000000000000, -8.375000000000000000, 0.000000000000000000 ) ) ;
#39 = DIRECTION ( 'NONE',  ( 1.000000000000000000, 0.000000000000000000, 0.000000000000000000 ) ) ;
#40 = CARTESIAN_POINT ( 'NONE',  ( -7.125000000000000000, 8.125000000000000000, 0.000000000000000000 ) ) ;
#41 = LOCAL_TIME ( 14, 43, 46.00000000000000000, #354 ) ;
#42 = FACE_OUTER_BOUND ( 'NONE', #168, .T. ) ;
#43 = CC_DESIGN_PERSON_AND_ORGANIZATION_ASSIGNMENT ( #217, #323, ( #16 ) ) ;
#44 = EDGE_LOOP ( 'NONE', ( #254 ) ) ;
#45 = DIRECTION ( 'NONE',  ( 0.000000000000000000, 0.000000000000000000, 1.000000000000000000 ) ) ;
#46 = CLOSED_SHELL ( 'NONE', ( #143, #367, #279, #71, #339, #300, #186, #10, #104, #132 ) ) ;
#47 = CC_DESIGN_PERSON_AND_ORGANIZATION_ASSIGNMENT ( #207, #61, ( #72 ) ) ;
#48 = ORIENTED_EDGE ( 'NONE', *, *, #216, .F. ) ;
#49 = EDGE_LOOP ( 'NONE', ( #271 ) ) ;
#50 = DATE_AND_TIME ( #78, #164 ) ;
#51 = ORIENTED_EDGE ( 'NONE', *, *, #220, .F. ) ;
#52 = ORIENTED_EDGE ( 'NONE', *, *, #370, .F. ) ;
#53 = LINE ( 'NONE', #27, #113 ) ;
#54 = DIRECTION ( 'NONE',  ( 0.000000000000000000, 1.000000000000000000, -0.000000000000000000 ) ) ;
#55 = PRODUCT_RELATED_PRODUCT_CATEGORY ( 'detail', '', ( #72 ) ) ;
#56 = VERTEX_POINT ( 'NONE', #94 ) ;
#57 = FACE_OUTER_BOUND ( 'NONE', #282, .T. ) ;
#58 = PERSON_AND_ORGANIZATION_ROLE ( 'design_supplier' ) ;
#59 = CARTESIAN_POINT ( 'NONE',  ( 7.125000000000000000, -8.125000000000000000, 0.000000000000000000 ) ) ;
#60 = EDGE_CURVE ( 'NONE', #174, #363, #322, .T. ) ;
#61 = PERSON_AND_ORGANIZATION_ROLE ( 'design_owner' ) ;
#62 = VERTEX_POINT ( 'NONE', #324 ) ;
#63 = APPROVAL_ROLE ( '' ) ;
#64 = CIRCLE ( 'NONE', #218, 0.1250000000000004441 ) ;
#65 = ORIENTED_EDGE ( 'NONE', *, *, #220, .T. ) ;
#66 = CARTESIAN_POINT ( 'NONE',  ( 7.375000000000000000, -8.375000000000000000, -0.1150000000000000050 ) ) ;
#67 = CIRCLE ( 'NONE', #253, 0.1250000000000004441 ) ;
#68 = DIRECTION ( 'NONE',  ( -1.000000000000000000, -0.000000000000000000, 0.000000000000000000 ) ) ;
#69 = EDGE_CURVE ( 'NONE', #7, #169, #211, .T. ) ;
#70 = CARTESIAN_POINT ( 'NONE',  ( -7.125000000000000000, -8.125000000000000000, -0.1150000000000000050 ) ) ;
#71 = ADVANCED_FACE ( 'NONE', ( #57, #281 ), #284, .F. ) ;
#72 = PRODUCT ( 'BP1816ABS_Default', 'BP1816ABS_Default', '', ( #3 ) ) ;
#73 = SECURITY_CLASSIFICATION ( '', '', #375 ) ;
#74 = DIRECTION ( 'NONE',  ( -0.000000000000000000, -0.000000000000000000, -1.000000000000000000 ) ) ;
#75 = VECTOR ( 'NONE', #137, 39.37007874015748143 ) ;
#76 = PLANE ( 'NONE',  #285 ) ;
#77 = EDGE_CURVE ( 'NONE', #369, #110, #283, .T. ) ;
#78 = CALENDAR_DATE ( 2023, 20, 12 ) ;
#79 = EDGE_CURVE ( 'NONE', #7, #338, #119, .T. ) ;
#80 = EDGE_LOOP ( 'NONE', ( #144 ) ) ;
#81 = CIRCLE ( 'NONE', #356, 0.1250000000000004441 ) ;
#82 = ORIENTED_EDGE ( 'NONE', *, *, #60, .F. ) ;
#83 = DIRECTION ( 'NONE',  ( 1.000000000000000000, -1.896550742720140448E-16, 0.000000000000000000 ) ) ;
#84 = PLANE ( 'NONE',  #199 ) ;
#85 = EDGE_LOOP ( 'NONE', ( #201 ) ) ;
#86 =( CONVERSION_BASED_UNIT ( 'INCH', #221 ) LENGTH_UNIT ( ) NAMED_UNIT ( #266 ) );
#87 = AXIS2_PLACEMENT_3D ( 'NONE', #373, #180, #235 ) ;
#88 = DIRECTION ( 'NONE',  ( 1.000000000000000000, -0.000000000000000000, 0.000000000000000000 ) ) ;
#89 = APPROVAL_ROLE ( '' ) ;
#90 = ADVANCED_BREP_SHAPE_REPRESENTATION ( 'BP1816ABS_Default', ( #140, #343 ), #176 ) ;
#91 = ORIENTED_EDGE ( 'NONE', *, *, #316, .F. ) ;
#92 = DIRECTION ( 'NONE',  ( 1.000000000000000000, 0.000000000000000000, 0.000000000000000000 ) ) ;
#93 = DATE_AND_TIME ( #267, #41 ) ;
#94 = CARTESIAN_POINT ( 'NONE',  ( -7.000000000000000000, -8.125000000000000000, 0.1150000000000000050 ) ) ;
#95 = APPLICATION_PROTOCOL_DEFINITION ( 'international standard', 'config_control_design', 1994, #37 ) ;
#96 = ORIENTED_EDGE ( 'NONE', *, *, #121, .T. ) ;
#97 = CARTESIAN_POINT ( 'NONE',  ( 7.250000000000000888, -8.125000000000000000, 0.1150000000000000050 ) ) ;
#98 = LOCAL_TIME ( 14, 43, 46.00000000000000000, #32 ) ;
#99 = AXIS2_PLACEMENT_3D ( 'NONE', #59, #264, #353 ) ;
#100 = APPROVAL_PERSON_ORGANIZATION ( #127, #344, #63 ) ;
#101 = DESIGN_CONTEXT ( 'detailed design', #37, 'design' ) ;
#102 = FACE_BOUND ( 'NONE', #49, .T. ) ;
#103 = VECTOR ( 'NONE', #336, 39.37007874015748143 ) ;
#104 = ADVANCED_FACE ( 'NONE', ( #342 ), #84, .T. ) ;
#105 = CARTESIAN_POINT ( 'NONE',  ( -1.049029629567079916E-15, 8.375000000000000000, -0.1150000000000000050 ) ) ;
#106 = EDGE_CURVE ( 'NONE', #169, #110, #53, .T. ) ;
#107 = CARTESIAN_POINT ( 'NONE',  ( -7.125000000000000000, -8.125000000000000000, 0.1150000000000000050 ) ) ;
#108 = DIRECTION ( 'NONE',  ( -0.000000000000000000, -0.000000000000000000, -1.000000000000000000 ) ) ;
#109 = ORIENTED_EDGE ( 'NONE', *, *, #77, .T. ) ;
#110 = VERTEX_POINT ( 'NONE', #260 ) ;
#111 = PLANE ( 'NONE',  #248 ) ;
#112 = LOCAL_TIME ( 14, 43, 46.00000000000000000, #263 ) ;
#113 = VECTOR ( 'NONE', #147, 39.37007874015748143 ) ;
#114 = ORIENTED_EDGE ( 'NONE', *, *, #208, .F. ) ;
#115 = DIRECTION ( 'NONE',  ( -0.000000000000000000, -0.000000000000000000, -1.000000000000000000 ) ) ;
#116 = APPROVAL_DATE_TIME ( #50, #344 ) ;
#117 = APPROVAL ( #150, 'UNSPECIFIED' ) ;
#118 = CARTESIAN_POINT ( 'NONE',  ( -7.375000000000000000, -8.375000000000000000, 0.1150000000000000050 ) ) ;
#119 = LINE ( 'NONE', #256, #240 ) ;
#120 = APPROVAL_DATE_TIME ( #148, #117 ) ;
#121 = EDGE_CURVE ( 'NONE', #363, #7, #374, .T. ) ;
#122 = LINE ( 'NONE', #244, #274 ) ;
#123 = AXIS2_PLACEMENT_3D ( 'NONE', #40, #219, #34 ) ;
#124 = PERSON_AND_ORGANIZATION ( #310, #12 ) ;
#125 = EDGE_LOOP ( 'NONE', ( #167 ) ) ;
#126 = DIRECTION ( 'NONE',  ( 0.000000000000000000, 0.000000000000000000, 1.000000000000000000 ) ) ;
#127 = PERSON_AND_ORGANIZATION ( #310, #12 ) ;
#128 = ORIENTED_EDGE ( 'NONE', *, *, #265, .F. ) ;
#129 = CARTESIAN_POINT ( 'NONE',  ( -7.000000000000000000, -8.125000000000000000, -0.1150000000000000050 ) ) ;
#130 = FACE_OUTER_BOUND ( 'NONE', #255, .T. ) ;
#131 = PLANE ( 'NONE',  #138 ) ;
#132 = ADVANCED_FACE ( 'NONE', ( #289, #177, #28, #194, #42 ), #131, .T. ) ;
#133 = ORIENTED_EDGE ( 'NONE', *, *, #188, .T. ) ;
#134 = DIRECTION ( 'NONE',  ( 0.000000000000000000, -1.000000000000000000, -0.000000000000000000 ) ) ;
#135 = LINE ( 'NONE', #252, #75 ) ;
#136 = EDGE_CURVE ( 'NONE', #174, #369, #303, .T. ) ;
#137 = DIRECTION ( 'NONE',  ( 0.000000000000000000, 0.000000000000000000, 1.000000000000000000 ) ) ;
#138 = AXIS2_PLACEMENT_3D ( 'NONE', #160, #163, #276 ) ;
#139 = ORIENTED_EDGE ( 'NONE', *, *, #8, .T. ) ;
#140 = MANIFOLD_SOLID_BREP ( 'Solid1', #46 ) ;
#141 = EDGE_LOOP ( 'NONE', ( #197, #65, #96, #372 ) ) ;
#142 = DIRECTION ( 'NONE',  ( -0.000000000000000000, 1.000000000000000000, 0.000000000000000000 ) ) ;
#143 = ADVANCED_FACE ( 'NONE', ( #161, #102, #251, #309, #334 ), #365, .F. ) ;
#144 = ORIENTED_EDGE ( 'NONE', *, *, #200, .F. ) ;
#145 = CARTESIAN_POINT ( 'NONE',  ( -7.375000000000000000, 8.375000000000000000, 0.1150000000000000050 ) ) ;
#146 = CIRCLE ( 'NONE', #295, 0.1250000000000004441 ) ;
#147 = DIRECTION ( 'NONE',  ( -0.000000000000000000, -0.000000000000000000, -1.000000000000000000 ) ) ;
#148 = DATE_AND_TIME ( #1, #112 ) ;
#149 = EDGE_LOOP ( 'NONE', ( #257, #345, #243, #51 ) ) ;
#150 = APPROVAL_STATUS ( 'not_yet_approved' ) ;
#151 = FACE_OUTER_BOUND ( 'NONE', #44, .T. ) ;
#152 = CARTESIAN_POINT ( 'NONE',  ( 0.000000000000000000, 0.000000000000000000, 0.000000000000000000 ) ) ;
#153 = EDGE_LOOP ( 'NONE', ( #109, #22, #139, #158 ) ) ;
#154 = VERTEX_POINT ( 'NONE', #129 ) ;
#155 = VECTOR ( 'NONE', #68, 39.37007874015748143 ) ;
#156 = DATE_AND_TIME ( #30, #198 ) ;
#157 = VERTEX_POINT ( 'NONE', #182 ) ;
#158 = ORIENTED_EDGE ( 'NONE', *, *, #136, .T. ) ;
#159 = DIRECTION ( 'NONE',  ( 0.000000000000000000, 0.000000000000000000, 1.000000000000000000 ) ) ;
#160 = CARTESIAN_POINT ( 'NONE',  ( -1.049029629567079916E-15, 6.993530863780510092E-16, 0.1150000000000000050 ) ) ;
#161 = FACE_BOUND ( 'NONE', #19, .T. ) ;
#162 = CIRCLE ( 'NONE', #184, 0.1250000000000004441 ) ;
#163 = DIRECTION ( 'NONE',  ( 0.000000000000000000, 0.000000000000000000, 1.000000000000000000 ) ) ;
#164 = LOCAL_TIME ( 14, 43, 46.00000000000000000, #172 ) ;
#165 = CARTESIAN_POINT ( 'NONE',  ( -7.125000000000000000, 8.125000000000000000, 0.1150000000000000050 ) ) ;
#166 = DIRECTION ( 'NONE',  ( -1.896550742720140448E-16, 1.000000000000000000, 0.000000000000000000 ) ) ;
#167 = ORIENTED_EDGE ( 'NONE', *, *, #370, .T. ) ;
#168 = EDGE_LOOP ( 'NONE', ( #230, #82, #236, #315 ) ) ;
#169 = VERTEX_POINT ( 'NONE', #249 ) ;
#170 = ORIENTED_EDGE ( 'NONE', *, *, #190, .T. ) ;
#171 = DIRECTION ( 'NONE',  ( 0.000000000000000000, 0.000000000000000000, -1.000000000000000000 ) ) ;
#172 = COORDINATED_UNIVERSAL_TIME_OFFSET ( 5, 0, .BEHIND. ) ;
#173 = EDGE_CURVE ( 'NONE', #56, #56, #67, .T. ) ;
#174 = VERTEX_POINT ( 'NONE', #247 ) ;
#175 =( NAMED_UNIT ( * ) SI_UNIT ( $, .STERADIAN. ) SOLID_ANGLE_UNIT ( ) );
#176 =( GEOMETRIC_REPRESENTATION_CONTEXT ( 3 ) GLOBAL_UNCERTAINTY_ASSIGNED_CONTEXT ( ( #297 ) ) GLOBAL_UNIT_ASSIGNED_CONTEXT ( ( #86, #237, #175 ) ) REPRESENTATION_CONTEXT ( 'NONE', 'WORKASPACE' ) );
#177 = FACE_BOUND ( 'NONE', #24, .T. ) ;
#178 = DATE_AND_TIME ( #320, #98 ) ;
#179 = FACE_OUTER_BOUND ( 'NONE', #125, .T. ) ;
#180 = DIRECTION ( 'NONE',  ( 0.000000000000000000, 0.000000000000000000, 1.000000000000000000 ) ) ;
#181 = PERSON_AND_ORGANIZATION ( #310, #12 ) ;
#182 = CARTESIAN_POINT ( 'NONE',  ( 7.250000000000000888, 8.125000000000000000, -0.1150000000000000050 ) ) ;
#183 = APPROVAL_STATUS ( 'not_yet_approved' ) ;
#184 = AXIS2_PLACEMENT_3D ( 'NONE', #70, #14, #17 ) ;
#185 = VERTEX_POINT ( 'NONE', #288 ) ;
#186 = ADVANCED_FACE ( 'NONE', ( #359 ), #76, .T. ) ;
#187 = CARTESIAN_POINT ( 'NONE',  ( 7.125000000000000000, -8.125000000000000000, -0.1150000000000000050 ) ) ;
#188 = EDGE_CURVE ( 'NONE', #185, #185, #340, .T. ) ;
#189 = AXIS2_PLACEMENT_3D ( 'NONE', #362, #45, #331 ) ;
#190 = EDGE_CURVE ( 'NONE', #110, #338, #270, .T. ) ;
#191 = DIRECTION ( 'NONE',  ( -0.000000000000000000, -0.000000000000000000, -1.000000000000000000 ) ) ;
#192 = CARTESIAN_POINT ( 'NONE',  ( -7.375000000000000000, 5.641246396613720264E-16, -0.1150000000000000050 ) ) ;
#193 = DIRECTION ( 'NONE',  ( -1.000000000000000000, -1.896550742720140448E-16, 0.000000000000000000 ) ) ;
#194 = FACE_BOUND ( 'NONE', #31, .T. ) ;
#195 = PRODUCT_DEFINITION ( 'UNKNOWN', '', #16, #101 ) ;
#196 = SHAPE_DEFINITION_REPRESENTATION ( #337, #90 ) ;
#197 = ORIENTED_EDGE ( 'NONE', *, *, #265, .T. ) ;
#198 = LOCAL_TIME ( 14, 43, 46.00000000000000000, #326 ) ;
#199 = AXIS2_PLACEMENT_3D ( 'NONE', #203, #317, #83 ) ;
#200 = EDGE_CURVE ( 'NONE', #157, #157, #81, .T. ) ;
#201 = ORIENTED_EDGE ( 'NONE', *, *, #302, .F. ) ;
#202 = CARTESIAN_POINT ( 'NONE',  ( 7.375000000000000000, 5.641246396613720264E-16, -0.1150000000000000050 ) ) ;
#203 = CARTESIAN_POINT ( 'NONE',  ( 7.375000000000000000, -8.375000000000000000, 0.000000000000000000 ) ) ;
#204 = ORIENTED_EDGE ( 'NONE', *, *, #208, .T. ) ;
#205 = APPLICATION_CONTEXT ( 'configuration controlled 3d designs of mechanical parts and assemblies' ) ;
#206 = DIRECTION ( 'NONE',  ( -1.000000000000000000, 1.896550742720140448E-16, -0.000000000000000000 ) ) ;
#207 = PERSON_AND_ORGANIZATION ( #310, #12 ) ;
#208 = EDGE_CURVE ( 'NONE', #62, #62, #234, .T. ) ;
#209 = AXIS2_PLACEMENT_3D ( 'NONE', #13, #191, #39 ) ;
#210 = CYLINDRICAL_SURFACE ( 'NONE', #366, 0.1250000000000004441 ) ;
#211 = LINE ( 'NONE', #319, #361 ) ;
#212 = PERSON_AND_ORGANIZATION ( #310, #12 ) ;
#213 = PLANE ( 'NONE',  #15 ) ;
#214 = APPROVAL_ROLE ( '' ) ;
#215 = FACE_OUTER_BOUND ( 'NONE', #35, .T. ) ;
#216 = EDGE_CURVE ( 'NONE', #357, #357, #33, .T. ) ;
#217 = PERSON_AND_ORGANIZATION ( #310, #12 ) ;
#218 = AXIS2_PLACEMENT_3D ( 'NONE', #9, #328, #269 ) ;
#219 = DIRECTION ( 'NONE',  ( 0.000000000000000000, 0.000000000000000000, 1.000000000000000000 ) ) ;
#220 = EDGE_CURVE ( 'NONE', #294, #363, #135, .T. ) ;
#221 = LENGTH_MEASURE_WITH_UNIT ( LENGTH_MEASURE( 0.02539999999999999897 ), #241 );
#222 = DIRECTION ( 'NONE',  ( 1.000000000000000000, 0.000000000000000000, 0.000000000000000000 ) ) ;
#223 = CARTESIAN_POINT ( 'NONE',  ( 7.375000000000000000, -8.375000000000000000, 0.000000000000000000 ) ) ;
#224 = CYLINDRICAL_SURFACE ( 'NONE', #123, 0.1250000000000004441 ) ;
#225 = ORIENTED_EDGE ( 'NONE', *, *, #69, .T. ) ;
#226 = CC_DESIGN_APPROVAL ( #360, ( #195 ) ) ;
#227 = EDGE_CURVE ( 'NONE', #154, #154, #162, .T. ) ;
#228 = VECTOR ( 'NONE', #206, 39.37007874015748143 ) ;
#229 = DIRECTION ( 'NONE',  ( -0.000000000000000000, -0.000000000000000000, -1.000000000000000000 ) ) ;
#230 = ORIENTED_EDGE ( 'NONE', *, *, #121, .F. ) ;
#231 = EDGE_LOOP ( 'NONE', ( #368 ) ) ;
#232 = ORIENTED_EDGE ( 'NONE', *, *, #79, .F. ) ;
#233 = CARTESIAN_POINT ( 'NONE',  ( 7.375000000000000000, -8.375000000000000000, 0.1150000000000000050 ) ) ;
#234 = CIRCLE ( 'NONE', #371, 0.1250000000000004441 ) ;
#235 = DIRECTION ( 'NONE',  ( 1.000000000000000000, 0.000000000000000000, 0.000000000000000000 ) ) ;
#236 = ORIENTED_EDGE ( 'NONE', *, *, #8, .F. ) ;
#237 =( NAMED_UNIT ( * ) PLANE_ANGLE_UNIT ( ) SI_UNIT ( $, .RADIAN. ) );
#238 = ORIENTED_EDGE ( 'NONE', *, *, #200, .T. ) ;
#239 = DIRECTION ( 'NONE',  ( 1.000000000000000000, 0.000000000000000000, 0.000000000000000000 ) ) ;
#240 = VECTOR ( 'NONE', #115, 39.37007874015748143 ) ;
#241 =( LENGTH_UNIT ( ) NAMED_UNIT ( * ) SI_UNIT ( $, .METRE. ) );
#242 = DATE_TIME_ROLE ( 'classification_date' ) ;
#243 = ORIENTED_EDGE ( 'NONE', *, *, #60, .T. ) ;
#244 = CARTESIAN_POINT ( 'NONE',  ( -1.049029629567079916E-15, -8.375000000000000000, -0.1150000000000000050 ) ) ;
#245 = DIRECTION ( 'NONE',  ( 0.000000000000000000, 0.000000000000000000, 1.000000000000000000 ) ) ;
#246 = VERTEX_POINT ( 'NONE', #97 ) ;
#247 = CARTESIAN_POINT ( 'NONE',  ( 7.375000000000000000, -8.375000000000000000, 0.1150000000000000050 ) ) ;
#248 = AXIS2_PLACEMENT_3D ( 'NONE', #258, #88, #171 ) ;
#249 = CARTESIAN_POINT ( 'NONE',  ( 7.375000000000000000, 8.375000000000001776, 0.1150000000000000050 ) ) ;
#250 = ORIENTED_EDGE ( 'NONE', *, *, #227, .F. ) ;
#251 = FACE_BOUND ( 'NONE', #80, .T. ) ;
#252 = CARTESIAN_POINT ( 'NONE',  ( -7.375000000000000000, -8.375000000000000000, 0.000000000000000000 ) ) ;
#253 = AXIS2_PLACEMENT_3D ( 'NONE', #107, #74, #222 ) ;
#254 = ORIENTED_EDGE ( 'NONE', *, *, #173, .F. ) ;
#255 = EDGE_LOOP ( 'NONE', ( #114 ) ) ;
#256 = CARTESIAN_POINT ( 'NONE',  ( -7.375000000000000000, 8.375000000000000000, 0.000000000000000000 ) ) ;
#257 = ORIENTED_EDGE ( 'NONE', *, *, #316, .T. ) ;
#258 = CARTESIAN_POINT ( 'NONE',  ( 7.375000000000000000, 8.375000000000000000, 0.000000000000000000 ) ) ;
#259 = VECTOR ( 'NONE', #286, 39.37007874015748143 ) ;
#260 = CARTESIAN_POINT ( 'NONE',  ( 7.375000000000000000, 8.375000000000001776, -0.1150000000000000050 ) ) ;
#261 = PERSON_AND_ORGANIZATION ( #310, #12 ) ;
#262 = CARTESIAN_POINT ( 'NONE',  ( 7.375000000000000000, 8.375000000000000000, 0.1150000000000000050 ) ) ;
#263 = COORDINATED_UNIVERSAL_TIME_OFFSET ( 5, 0, .BEHIND. ) ;
#264 = DIRECTION ( 'NONE',  ( 0.000000000000000000, 0.000000000000000000, 1.000000000000000000 ) ) ;
#265 = EDGE_CURVE ( 'NONE', #338, #294, #364, .T. ) ;
#266 = DIMENSIONAL_EXPONENTS ( 1.000000000000000000, 0.000000000000000000, 0.000000000000000000, 0.000000000000000000, 0.000000000000000000, 0.000000000000000000, 0.000000000000000000 ) ;
#267 = CALENDAR_DATE ( 2023, 20, 12 ) ;
#268 = DIRECTION ( 'NONE',  ( -0.000000000000000000, -0.000000000000000000, -1.000000000000000000 ) ) ;
#269 = DIRECTION ( 'NONE',  ( 1.000000000000000000, 0.000000000000000000, 0.000000000000000000 ) ) ;
#270 = LINE ( 'NONE', #105, #155 ) ;
#271 = ORIENTED_EDGE ( 'NONE', *, *, #188, .F. ) ;
#272 = CARTESIAN_POINT ( 'NONE',  ( -7.375000000000000000, 8.375000000000000000, 0.000000000000000000 ) ) ;
#273 = APPROVAL_PERSON_ORGANIZATION ( #124, #117, #214 ) ;
#274 = VECTOR ( 'NONE', #321, 39.37007874015748143 ) ;
#275 = CARTESIAN_POINT ( 'NONE',  ( -7.125000000000000000, 8.125000000000000000, -0.1150000000000000050 ) ) ;
#276 = DIRECTION ( 'NONE',  ( 1.000000000000000000, 0.000000000000000000, -0.000000000000000000 ) ) ;
#277 = EDGE_LOOP ( 'NONE', ( #238 ) ) ;
#278 = DIRECTION ( 'NONE',  ( 1.000000000000000000, 0.000000000000000000, 0.000000000000000000 ) ) ;
#279 = ADVANCED_FACE ( 'NONE', ( #130, #305 ), #224, .F. ) ;
#280 = ORIENTED_EDGE ( 'NONE', *, *, #77, .F. ) ;
#281 = FACE_OUTER_BOUND ( 'NONE', #277, .T. ) ;
#282 = EDGE_LOOP ( 'NONE', ( #48 ) ) ;
#283 = LINE ( 'NONE', #202, #301 ) ;
#284 = CYLINDRICAL_SURFACE ( 'NONE', #87, 0.1250000000000004441 ) ;
#285 = AXIS2_PLACEMENT_3D ( 'NONE', #272, #166, #193 ) ;
#286 = DIRECTION ( 'NONE',  ( -0.000000000000000000, -1.000000000000000000, -0.000000000000000000 ) ) ;
#287 = DATE_TIME_ROLE ( 'creation_date' ) ;
#288 = CARTESIAN_POINT ( 'NONE',  ( -7.000000000000000000, 8.125000000000000000, -0.1150000000000000050 ) ) ;
#289 = FACE_BOUND ( 'NONE', #314, .T. ) ;
#290 = PERSON_AND_ORGANIZATION_ROLE ( 'classification_officer' ) ;
#291 = ORIENTED_EDGE ( 'NONE', *, *, #227, .T. ) ;
#292 = CARTESIAN_POINT ( 'NONE',  ( -7.375000000000000000, -8.374999999999998224, 0.1150000000000000050 ) ) ;
#293 = PERSON_AND_ORGANIZATION_ROLE ( 'creator' ) ;
#294 = VERTEX_POINT ( 'NONE', #325 ) ;
#295 = AXIS2_PLACEMENT_3D ( 'NONE', #187, #268, #330 ) ;
#296 = FACE_OUTER_BOUND ( 'NONE', #85, .T. ) ;
#297 = UNCERTAINTY_MEASURE_WITH_UNIT (LENGTH_MEASURE( 1.000000000000000082E-05 ), #86, 'distance_accuracy_value', 'NONE');
#298 = FACE_OUTER_BOUND ( 'NONE', #141, .T. ) ;
#299 = CC_DESIGN_APPROVAL ( #117, ( #16 ) ) ;
#300 = ADVANCED_FACE ( 'NONE', ( #298 ), #213, .T. ) ;
#301 = VECTOR ( 'NONE', #142, 39.37007874015748143 ) ;
#302 = EDGE_CURVE ( 'NONE', #246, #246, #64, .T. ) ;
#303 = LINE ( 'NONE', #223, #103 ) ;
#304 = CC_DESIGN_DATE_AND_TIME_ASSIGNMENT ( #156, #242, ( #73 ) ) ;
#305 = FACE_OUTER_BOUND ( 'NONE', #21, .T. ) ;
#306 = ORIENTED_EDGE ( 'NONE', *, *, #173, .T. ) ;
#307 = DIRECTION ( 'NONE',  ( -0.000000000000000000, -0.000000000000000000, -1.000000000000000000 ) ) ;
#308 = ORIENTED_EDGE ( 'NONE', *, *, #106, .T. ) ;
#309 = FACE_BOUND ( 'NONE', #346, .T. ) ;
#310 = PERSON ( 'UNSPECIFIED', 'UNSPECIFIED', 'UNSPECIFIED', ('UNSPECIFIED'), ('UNSPECIFIED'), ('UNSPECIFIED') ) ;
#311 = ORIENTED_EDGE ( 'NONE', *, *, #302, .T. ) ;
#312 = LINE ( 'NONE', #262, #259 ) ;
#313 = AXIS2_PLACEMENT_3D ( 'NONE', #275, #307, #278 ) ;
#314 = EDGE_LOOP ( 'NONE', ( #306 ) ) ;
#315 = ORIENTED_EDGE ( 'NONE', *, *, #69, .F. ) ;
#316 = EDGE_CURVE ( 'NONE', #294, #369, #122, .T. ) ;
#317 = DIRECTION ( 'NONE',  ( -1.896550742720140448E-16, -1.000000000000000000, 0.000000000000000000 ) ) ;
#318 = APPLICATION_PROTOCOL_DEFINITION ( 'international standard', 'config_control_design', 1994, #205 ) ;
#319 = CARTESIAN_POINT ( 'NONE',  ( -7.375000000000000000, 8.375000000000000000, 0.1150000000000000050 ) ) ;
#320 = CALENDAR_DATE ( 2023, 20, 12 ) ;
#321 = DIRECTION ( 'NONE',  ( 1.000000000000000000, 0.000000000000000000, -0.000000000000000000 ) ) ;
#322 = LINE ( 'NONE', #233, #228 ) ;
#323 = PERSON_AND_ORGANIZATION_ROLE ( 'creator' ) ;
#324 = CARTESIAN_POINT ( 'NONE',  ( -7.000000000000000000, 8.125000000000000000, 0.1150000000000000050 ) ) ;
#325 = CARTESIAN_POINT ( 'NONE',  ( -7.375000000000000000, -8.374999999999998224, -0.1150000000000000050 ) ) ;
#326 = COORDINATED_UNIVERSAL_TIME_OFFSET ( 5, 0, .BEHIND. ) ;
#327 = CC_DESIGN_SECURITY_CLASSIFICATION ( #73, ( #16 ) ) ;
#328 = DIRECTION ( 'NONE',  ( -0.000000000000000000, -0.000000000000000000, -1.000000000000000000 ) ) ;
#329 = EDGE_LOOP ( 'NONE', ( #341, #280, #91, #128 ) ) ;
#330 = DIRECTION ( 'NONE',  ( 1.000000000000000000, 0.000000000000000000, 0.000000000000000000 ) ) ;
#331 = DIRECTION ( 'NONE',  ( 1.000000000000000000, 0.000000000000000000, -0.000000000000000000 ) ) ;
#332 = CC_DESIGN_PERSON_AND_ORGANIZATION_ASSIGNMENT ( #212, #293, ( #195 ) ) ;
#333 = CARTESIAN_POINT ( 'NONE',  ( 7.125000000000000000, 8.125000000000000000, -0.1150000000000000050 ) ) ;
#334 = FACE_OUTER_BOUND ( 'NONE', #329, .T. ) ;
#335 = CC_DESIGN_APPROVAL ( #344, ( #73 ) ) ;
#336 = DIRECTION ( 'NONE',  ( 0.000000000000000000, 0.000000000000000000, -1.000000000000000000 ) ) ;
#337 = PRODUCT_DEFINITION_SHAPE ( 'NONE', 'NONE',  #195 ) ;
#338 = VERTEX_POINT ( 'NONE', #351 ) ;
#339 = ADVANCED_FACE ( 'NONE', ( #296, #179 ), #29, .F. ) ;
#340 = CIRCLE ( 'NONE', #313, 0.1250000000000004441 ) ;
#341 = ORIENTED_EDGE ( 'NONE', *, *, #190, .F. ) ;
#342 = FACE_OUTER_BOUND ( 'NONE', #149, .T. ) ;
#343 = AXIS2_PLACEMENT_3D ( 'NONE', #152, #245, #239 ) ;
#344 = APPROVAL ( #6, 'UNSPECIFIED' ) ;
#345 = ORIENTED_EDGE ( 'NONE', *, *, #136, .F. ) ;
#346 = EDGE_LOOP ( 'NONE', ( #52 ) ) ;
#347 = VERTEX_POINT ( 'NONE', #11 ) ;
#348 = FACE_OUTER_BOUND ( 'NONE', #153, .T. ) ;
#349 = APPROVAL_DATE_TIME ( #93, #360 ) ;
#350 = VECTOR ( 'NONE', #134, 39.37007874015748143 ) ;
#351 = CARTESIAN_POINT ( 'NONE',  ( -7.375000000000000000, 8.375000000000000000, -0.1150000000000000050 ) ) ;
#352 = PERSON_AND_ORGANIZATION ( #310, #12 ) ;
#353 = DIRECTION ( 'NONE',  ( 1.000000000000000000, 0.000000000000000000, 0.000000000000000000 ) ) ;
#354 = COORDINATED_UNIVERSAL_TIME_OFFSET ( 5, 0, .BEHIND. ) ;
#355 = CARTESIAN_POINT ( 'NONE',  ( -7.125000000000000000, -8.125000000000000000, 0.000000000000000000 ) ) ;
#356 = AXIS2_PLACEMENT_3D ( 'NONE', #333, #108, #18 ) ;
#357 = VERTEX_POINT ( 'NONE', #2 ) ;
#358 = CC_DESIGN_PERSON_AND_ORGANIZATION_ASSIGNMENT ( #261, #58, ( #16 ) ) ;
#359 = FACE_OUTER_BOUND ( 'NONE', #25, .T. ) ;
#360 = APPROVAL ( #183, 'UNSPECIFIED' ) ;
#361 = VECTOR ( 'NONE', #376, 39.37007874015748143 ) ;
#362 = CARTESIAN_POINT ( 'NONE',  ( -1.049029629567079916E-15, 5.641246396613720264E-16, -0.1150000000000000050 ) ) ;
#363 = VERTEX_POINT ( 'NONE', #292 ) ;
#364 = LINE ( 'NONE', #192, #350 ) ;
#365 = PLANE ( 'NONE',  #189 ) ;
#366 = AXIS2_PLACEMENT_3D ( 'NONE', #355, #159, #92 ) ;
#367 = ADVANCED_FACE ( 'NONE', ( #151, #215 ), #210, .F. ) ;
#368 = ORIENTED_EDGE ( 'NONE', *, *, #216, .T. ) ;
#369 = VERTEX_POINT ( 'NONE', #66 ) ;
#370 = EDGE_CURVE ( 'NONE', #347, #347, #146, .T. ) ;
#371 = AXIS2_PLACEMENT_3D ( 'NONE', #165, #229, #20 ) ;
#372 = ORIENTED_EDGE ( 'NONE', *, *, #79, .T. ) ;
#373 = CARTESIAN_POINT ( 'NONE',  ( 7.125000000000000000, 8.125000000000000000, 0.000000000000000000 ) ) ;
#374 = LINE ( 'NONE', #118, #26 ) ;
#375 = SECURITY_CLASSIFICATION_LEVEL ( 'unclassified' ) ;
#376 = DIRECTION ( 'NONE',  ( 1.000000000000000000, 1.896550742720140448E-16, -0.000000000000000000 ) ) ;
ENDSEC;
END-ISO-10303-21;
