ISO-10303-21;
HEADER;
FILE_DESCRIPTION (( 'STEP AP203' ),
    '1' );
FILE_NAME ('BP1614ABS_Default.step',
    '2023-12-20T19:43:43',
    ( 'Windows User' ),
    ( 'AUTOMATION DIRECT' ),
    'SwSTEP 2.0',
    'SolidWorks 2023',
    '' );
FILE_SCHEMA (( 'CONFIG_CONTROL_DESIGN' ));
ENDSEC;

DATA;
#1 = VERTEX_POINT ( 'NONE', #284 ) ;
#2 = ADVANCED_FACE ( 'NONE', ( #315 ), #229, .T. ) ;
#3 = CARTESIAN_POINT ( 'NONE',  ( -6.375000000000000000, 7.375000000000000000, -0.1150000000000000050 ) ) ;
#4 = EDGE_LOOP ( 'NONE', ( #278 ) ) ;
#5 = VECTOR ( 'NONE', #68, 39.37007874015748143 ) ;
#6 = EDGE_LOOP ( 'NONE', ( #272 ) ) ;
#7 = EDGE_CURVE ( 'NONE', #1, #85, #200, .T. ) ;
#8 = CIRCLE ( 'NONE', #344, 0.1250000000000004441 ) ;
#9 = APPROVAL ( #335, 'UNSPECIFIED' ) ;
#10 = CARTESIAN_POINT ( 'NONE',  ( -6.125000000000000000, -7.125000000000000000, 0.000000000000000000 ) ) ;
#11 = DIRECTION ( 'NONE',  ( -0.000000000000000000, -0.000000000000000000, -1.000000000000000000 ) ) ;
#12 = CARTESIAN_POINT ( 'NONE',  ( -6.375000000000000000, 7.375000000000000000, 0.1150000000000000050 ) ) ;
#13 = AXIS2_PLACEMENT_3D ( 'NONE', #173, #233, #30 ) ;
#14 = DIRECTION ( 'NONE',  ( 1.000000000000000000, 0.000000000000000000, 0.000000000000000000 ) ) ;
#15 = ORIENTED_EDGE ( 'NONE', *, *, #7, .F. ) ;
#16 = CARTESIAN_POINT ( 'NONE',  ( 6.375000000000000000, 6.993530863780510092E-16, -0.1150000000000000050 ) ) ;
#17 = DIRECTION ( 'NONE',  ( 1.000000000000000000, 0.000000000000000000, 0.000000000000000000 ) ) ;
#18 = EDGE_CURVE ( 'NONE', #250, #306, #282, .T. ) ;
#19 = DIRECTION ( 'NONE',  ( 1.000000000000000000, 0.000000000000000000, 0.000000000000000000 ) ) ;
#20 = CYLINDRICAL_SURFACE ( 'NONE', #148, 0.1250000000000004441 ) ;
#21 = PLANE ( 'NONE',  #319 ) ;
#22 = PERSON_AND_ORGANIZATION ( #195, #107 ) ;
#23 = ORIENTED_EDGE ( 'NONE', *, *, #289, .T. ) ;
#24 = APPROVAL_PERSON_ORGANIZATION ( #28, #370, #249 ) ;
#25 = MECHANICAL_CONTEXT ( 'NONE', #264, 'mechanical' ) ;
#26 = ORIENTED_EDGE ( 'NONE', *, *, #88, .F. ) ;
#27 = CC_DESIGN_DATE_AND_TIME_ASSIGNMENT ( #251, #194, ( #95 ) ) ;
#28 = PERSON_AND_ORGANIZATION ( #195, #107 ) ;
#29 = EDGE_LOOP ( 'NONE', ( #324 ) ) ;
#30 = DIRECTION ( 'NONE',  ( 1.000000000000000000, 0.000000000000000000, -0.000000000000000000 ) ) ;
#31 = ADVANCED_FACE ( 'NONE', ( #55, #117, #263, #62, #314 ), #234, .F. ) ;
#32 = CARTESIAN_POINT ( 'NONE',  ( -3.496765431890259976E-16, -7.375000000000000000, -0.1150000000000000050 ) ) ;
#33 = MANIFOLD_SOLID_BREP ( 'Solid1', #209 ) ;
#34 = CARTESIAN_POINT ( 'NONE',  ( -6.125000000000000000, 7.125000000000000000, -0.1150000000000000050 ) ) ;
#35 = DIRECTION ( 'NONE',  ( 1.000000000000000000, 0.000000000000000000, 0.000000000000000000 ) ) ;
#36 = CIRCLE ( 'NONE', #136, 0.1250000000000004441 ) ;
#37 = DIRECTION ( 'NONE',  ( 0.000000000000000000, 0.000000000000000000, 1.000000000000000000 ) ) ;
#38 = DIRECTION ( 'NONE',  ( 0.000000000000000000, 0.000000000000000000, -1.000000000000000000 ) ) ;
#39 =( NAMED_UNIT ( * ) PLANE_ANGLE_UNIT ( ) SI_UNIT ( $, .RADIAN. ) );
#40 = CARTESIAN_POINT ( 'NONE',  ( -6.375000000000000000, -7.375000000000000000, 0.000000000000000000 ) ) ;
#41 = CIRCLE ( 'NONE', #119, 0.1250000000000004441 ) ;
#42 = DIRECTION ( 'NONE',  ( -0.000000000000000000, -0.000000000000000000, -1.000000000000000000 ) ) ;
#43 = EDGE_LOOP ( 'NONE', ( #270 ) ) ;
#44 = FACE_OUTER_BOUND ( 'NONE', #168, .T. ) ;
#45 = CC_DESIGN_PERSON_AND_ORGANIZATION_ASSIGNMENT ( #22, #305, ( #192 ) ) ;
#46 = CARTESIAN_POINT ( 'NONE',  ( -6.125000000000000000, -7.125000000000000000, 0.1150000000000000050 ) ) ;
#47 = DIRECTION ( 'NONE',  ( -0.000000000000000000, 1.000000000000000000, 0.000000000000000000 ) ) ;
#48 = CALENDAR_DATE ( 2023, 20, 12 ) ;
#49 = CARTESIAN_POINT ( 'NONE',  ( 6.125000000000000000, -7.125000000000000000, 0.1150000000000000050 ) ) ;
#50 = CARTESIAN_POINT ( 'NONE',  ( 0.000000000000000000, 0.000000000000000000, 0.000000000000000000 ) ) ;
#51 = CIRCLE ( 'NONE', #197, 0.1250000000000004441 ) ;
#52 = EDGE_LOOP ( 'NONE', ( #310 ) ) ;
#53 = APPROVAL_DATE_TIME ( #174, #9 ) ;
#54 = ORIENTED_EDGE ( 'NONE', *, *, #207, .F. ) ;
#55 = FACE_BOUND ( 'NONE', #87, .T. ) ;
#56 = ORIENTED_EDGE ( 'NONE', *, *, #102, .T. ) ;
#57 = APPROVAL_ROLE ( '' ) ;
#58 = LOCAL_TIME ( 14, 43, 43.00000000000000000, #333 ) ;
#59 = DIRECTION ( 'NONE',  ( 1.000000000000000000, -2.194048898440950109E-16, 0.000000000000000000 ) ) ;
#60 = DIRECTION ( 'NONE',  ( 0.000000000000000000, 0.000000000000000000, 1.000000000000000000 ) ) ;
#61 = EDGE_CURVE ( 'NONE', #363, #363, #67, .T. ) ;
#62 = FACE_BOUND ( 'NONE', #257, .T. ) ;
#63 = DIRECTION ( 'NONE',  ( -0.000000000000000000, -0.000000000000000000, -1.000000000000000000 ) ) ;
#64 = VECTOR ( 'NONE', #38, 39.37007874015748143 ) ;
#65 = EDGE_LOOP ( 'NONE', ( #56 ) ) ;
#66 = VERTEX_POINT ( 'NONE', #116 ) ;
#67 = CIRCLE ( 'NONE', #338, 0.1250000000000004441 ) ;
#68 = DIRECTION ( 'NONE',  ( 0.000000000000000000, 0.000000000000000000, 1.000000000000000000 ) ) ;
#69 =( CONVERSION_BASED_UNIT ( 'INCH', #321 ) LENGTH_UNIT ( ) NAMED_UNIT ( #376 ) );
#70 = EDGE_CURVE ( 'NONE', #128, #1, #115, .T. ) ;
#71 = DIRECTION ( 'NONE',  ( -2.194048898440950109E-16, 1.000000000000000000, 0.000000000000000000 ) ) ;
#72 = LINE ( 'NONE', #16, #179 ) ;
#73 = AXIS2_PLACEMENT_3D ( 'NONE', #346, #145, #342 ) ;
#74 = DIRECTION ( 'NONE',  ( -1.000000000000000000, 2.194048898440950109E-16, -0.000000000000000000 ) ) ;
#75 = EDGE_LOOP ( 'NONE', ( #190 ) ) ;
#76 = FACE_OUTER_BOUND ( 'NONE', #75, .T. ) ;
#77 = VERTEX_POINT ( 'NONE', #357 ) ;
#78 = CALENDAR_DATE ( 2023, 20, 12 ) ;
#79 = CC_DESIGN_PERSON_AND_ORGANIZATION_ASSIGNMENT ( #369, #341, ( #371 ) ) ;
#80 = PERSON_AND_ORGANIZATION ( #195, #107 ) ;
#81 =( GEOMETRIC_REPRESENTATION_CONTEXT ( 3 ) GLOBAL_UNCERTAINTY_ASSIGNED_CONTEXT ( ( #334 ) ) GLOBAL_UNIT_ASSIGNED_CONTEXT ( ( #69, #39, #112 ) ) REPRESENTATION_CONTEXT ( 'NONE', 'WORKASPACE' ) );
#82 = ORIENTED_EDGE ( 'NONE', *, *, #61, .F. ) ;
#83 = DESIGN_CONTEXT ( 'detailed design', #318, 'design' ) ;
#84 = COORDINATED_UNIVERSAL_TIME_OFFSET ( 5, 0, .BEHIND. ) ;
#85 = VERTEX_POINT ( 'NONE', #3 ) ;
#86 = EDGE_LOOP ( 'NONE', ( #15, #54, #114, #142 ) ) ;
#87 = EDGE_LOOP ( 'NONE', ( #172 ) ) ;
#88 = EDGE_CURVE ( 'NONE', #127, #127, #297, .T. ) ;
#89 = CALENDAR_DATE ( 2023, 20, 12 ) ;
#90 = ORIENTED_EDGE ( 'NONE', *, *, #331, .F. ) ;
#91 = LOCAL_TIME ( 14, 43, 43.00000000000000000, #275 ) ;
#92 = CARTESIAN_POINT ( 'NONE',  ( -3.496765431890259976E-16, 7.375000000000000000, -0.1150000000000000050 ) ) ;
#93 = FACE_BOUND ( 'NONE', #162, .T. ) ;
#94 = DIRECTION ( 'NONE',  ( -0.000000000000000000, -0.000000000000000000, -1.000000000000000000 ) ) ;
#95 = SECURITY_CLASSIFICATION ( '', '', #247 ) ;
#96 = LINE ( 'NONE', #294, #64 ) ;
#97 = CARTESIAN_POINT ( 'NONE',  ( -5.999999999999999112, 7.125000000000000000, -0.1150000000000000050 ) ) ;
#98 = ORIENTED_EDGE ( 'NONE', *, *, #277, .T. ) ;
#99 = ADVANCED_FACE ( 'NONE', ( #93, #208, #260, #146, #259 ), #316, .T. ) ;
#100 = LINE ( 'NONE', #214, #175 ) ;
#101 = VERTEX_POINT ( 'NONE', #132 ) ;
#102 = EDGE_CURVE ( 'NONE', #77, #77, #372, .T. ) ;
#103 = ORIENTED_EDGE ( 'NONE', *, *, #345, .F. ) ;
#104 = CARTESIAN_POINT ( 'NONE',  ( 6.125000000000000000, 7.125000000000000000, 0.000000000000000000 ) ) ;
#105 = CARTESIAN_POINT ( 'NONE',  ( -6.375000000000000000, 7.375000000000000000, 0.000000000000000000 ) ) ;
#106 = LINE ( 'NONE', #265, #5 ) ;
#107 = ORGANIZATION ( 'UNSPECIFIED', 'UNSPECIFIED', '' ) ;
#108 = DIRECTION ( 'NONE',  ( -0.000000000000000000, -0.000000000000000000, -1.000000000000000000 ) ) ;
#109 = COORDINATED_UNIVERSAL_TIME_OFFSET ( 5, 0, .BEHIND. ) ;
#110 = APPROVAL_DATE_TIME ( #171, #370 ) ;
#111 = EDGE_LOOP ( 'NONE', ( #23, #137, #309, #248 ) ) ;
#112 =( NAMED_UNIT ( * ) SI_UNIT ( $, .STERADIAN. ) SOLID_ANGLE_UNIT ( ) );
#113 = AXIS2_PLACEMENT_3D ( 'NONE', #50, #255, #374 ) ;
#114 = ORIENTED_EDGE ( 'NONE', *, *, #18, .F. ) ;
#115 = LINE ( 'NONE', #283, #349 ) ;
#116 = CARTESIAN_POINT ( 'NONE',  ( -6.375000000000000000, 7.375000000000000000, 0.1150000000000000050 ) ) ;
#117 = FACE_BOUND ( 'NONE', #241, .T. ) ;
#118 = CARTESIAN_POINT ( 'NONE',  ( 6.375000000000000000, -7.375000000000000000, 0.000000000000000000 ) ) ;
#119 = AXIS2_PLACEMENT_3D ( 'NONE', #300, #320, #164 ) ;
#120 = PRODUCT_RELATED_PRODUCT_CATEGORY ( 'detail', '', ( #371 ) ) ;
#121 = FACE_OUTER_BOUND ( 'NONE', #52, .T. ) ;
#122 = DIRECTION ( 'NONE',  ( -0.000000000000000000, -1.000000000000000000, -0.000000000000000000 ) ) ;
#123 = APPROVAL_DATE_TIME ( #308, #152 ) ;
#124 = LOCAL_TIME ( 14, 43, 43.00000000000000000, #109 ) ;
#125 = DIRECTION ( 'NONE',  ( -1.000000000000000000, 0.000000000000000000, 0.000000000000000000 ) ) ;
#126 = CC_DESIGN_PERSON_AND_ORGANIZATION_ASSIGNMENT ( #140, #169, ( #95 ) ) ;
#127 = VERTEX_POINT ( 'NONE', #97 ) ;
#128 = VERTEX_POINT ( 'NONE', #206 ) ;
#129 = FACE_OUTER_BOUND ( 'NONE', #6, .T. ) ;
#130 =( LENGTH_UNIT ( ) NAMED_UNIT ( * ) SI_UNIT ( $, .METRE. ) );
#131 = PLANE ( 'NONE',  #144 ) ;
#132 = CARTESIAN_POINT ( 'NONE',  ( -5.999999999999999112, -7.125000000000000000, -0.1150000000000000050 ) ) ;
#133 = APPROVAL_PERSON_ORGANIZATION ( #80, #9, #57 ) ;
#134 = PLANE ( 'NONE',  #317 ) ;
#135 = PERSON_AND_ORGANIZATION_ROLE ( 'design_supplier' ) ;
#136 = AXIS2_PLACEMENT_3D ( 'NONE', #46, #108, #245 ) ;
#137 = ORIENTED_EDGE ( 'NONE', *, *, #261, .T. ) ;
#138 = DATE_AND_TIME ( #202, #124 ) ;
#139 = EDGE_LOOP ( 'NONE', ( #337 ) ) ;
#140 = PERSON_AND_ORGANIZATION ( #195, #107 ) ;
#141 = ADVANCED_FACE ( 'NONE', ( #323 ), #134, .T. ) ;
#142 = ORIENTED_EDGE ( 'NONE', *, *, #289, .F. ) ;
#143 = ORIENTED_EDGE ( 'NONE', *, *, #18, .T. ) ;
#144 = AXIS2_PLACEMENT_3D ( 'NONE', #356, #295, #359 ) ;
#145 = DIRECTION ( 'NONE',  ( -0.000000000000000000, -0.000000000000000000, -1.000000000000000000 ) ) ;
#146 = FACE_BOUND ( 'NONE', #43, .T. ) ;
#147 = DIRECTION ( 'NONE',  ( 1.000000000000000000, 0.000000000000000000, 0.000000000000000000 ) ) ;
#148 = AXIS2_PLACEMENT_3D ( 'NONE', #302, #37, #14 ) ;
#149 = CARTESIAN_POINT ( 'NONE',  ( 6.125000000000000000, 7.125000000000000000, -0.1150000000000000050 ) ) ;
#150 = ORIENTED_EDGE ( 'NONE', *, *, #70, .T. ) ;
#151 = ADVANCED_FACE ( 'NONE', ( #44 ), #131, .T. ) ;
#152 = APPROVAL ( #303, 'UNSPECIFIED' ) ;
#153 = AXIS2_PLACEMENT_3D ( 'NONE', #118, #343, #59 ) ;
#154 = DIRECTION ( 'NONE',  ( 1.000000000000000000, 2.194048898440950109E-16, -0.000000000000000000 ) ) ;
#155 = CARTESIAN_POINT ( 'NONE',  ( 6.375000000000000000, -7.375000000000000000, 0.1150000000000000050 ) ) ;
#156 = DIRECTION ( 'NONE',  ( 1.000000000000000000, 0.000000000000000000, 0.000000000000000000 ) ) ;
#157 = VERTEX_POINT ( 'NONE', #217 ) ;
#158 = PRODUCT_DEFINITION_FORMATION_WITH_SPECIFIED_SOURCE ( 'ANY', '', #371, .NOT_KNOWN. ) ;
#159 = VERTEX_POINT ( 'NONE', #163 ) ;
#160 = CARTESIAN_POINT ( 'NONE',  ( -6.375000000000000000, -7.375000000000000000, 0.1150000000000000050 ) ) ;
#161 = VERTEX_POINT ( 'NONE', #215 ) ;
#162 = EDGE_LOOP ( 'NONE', ( #288 ) ) ;
#163 = CARTESIAN_POINT ( 'NONE',  ( 6.375000000000000000, -7.375000000000000000, 0.1150000000000000050 ) ) ;
#164 = DIRECTION ( 'NONE',  ( 1.000000000000000000, 0.000000000000000000, 0.000000000000000000 ) ) ;
#165 = COORDINATED_UNIVERSAL_TIME_OFFSET ( 5, 0, .BEHIND. ) ;
#166 = DIRECTION ( 'NONE',  ( 1.000000000000000000, 0.000000000000000000, 0.000000000000000000 ) ) ;
#167 = PERSON_AND_ORGANIZATION ( #195, #107 ) ;
#168 = EDGE_LOOP ( 'NONE', ( #177, #231, #253, #98 ) ) ;
#169 = PERSON_AND_ORGANIZATION_ROLE ( 'classification_officer' ) ;
#170 = ORIENTED_EDGE ( 'NONE', *, *, #293, .F. ) ;
#171 = DATE_AND_TIME ( #89, #91 ) ;
#172 = ORIENTED_EDGE ( 'NONE', *, *, #258, .F. ) ;
#173 = CARTESIAN_POINT ( 'NONE',  ( -3.496765431890259976E-16, 8.357558371096378572E-16, 0.1150000000000000050 ) ) ;
#174 = DATE_AND_TIME ( #48, #350 ) ;
#175 = VECTOR ( 'NONE', #292, 39.37007874015748143 ) ;
#176 = DIRECTION ( 'NONE',  ( 1.000000000000000000, 0.000000000000000000, -0.000000000000000000 ) ) ;
#177 = ORIENTED_EDGE ( 'NONE', *, *, #207, .T. ) ;
#178 = ORIENTED_EDGE ( 'NONE', *, *, #261, .F. ) ;
#179 = VECTOR ( 'NONE', #47, 39.37007874015748143 ) ;
#180 = ADVANCED_FACE ( 'NONE', ( #184 ), #21, .T. ) ;
#181 = ORIENTED_EDGE ( 'NONE', *, *, #367, .F. ) ;
#182 = EDGE_CURVE ( 'NONE', #201, #66, #221, .T. ) ;
#183 = CC_DESIGN_PERSON_AND_ORGANIZATION_ASSIGNMENT ( #167, #226, ( #158 ) ) ;
#184 = FACE_OUTER_BOUND ( 'NONE', #111, .T. ) ;
#185 = DIRECTION ( 'NONE',  ( -1.000000000000000000, -2.194048898440950109E-16, 0.000000000000000000 ) ) ;
#186 = CARTESIAN_POINT ( 'NONE',  ( 6.125000000000000000, 7.125000000000000000, 0.1150000000000000050 ) ) ;
#187 = AXIS2_PLACEMENT_3D ( 'NONE', #10, #351, #19 ) ;
#188 = CYLINDRICAL_SURFACE ( 'NONE', #187, 0.1250000000000004441 ) ;
#189 = DIRECTION ( 'NONE',  ( -0.000000000000000000, -0.000000000000000000, -1.000000000000000000 ) ) ;
#190 = ORIENTED_EDGE ( 'NONE', *, *, #61, .T. ) ;
#191 = CYLINDRICAL_SURFACE ( 'NONE', #355, 0.1250000000000004441 ) ;
#192 = PRODUCT_DEFINITION ( 'UNKNOWN', '', #158, #83 ) ;
#193 = CARTESIAN_POINT ( 'NONE',  ( 6.375000000000000000, -7.375000000000000000, -0.1150000000000000050 ) ) ;
#194 = DATE_TIME_ROLE ( 'classification_date' ) ;
#195 = PERSON ( 'UNSPECIFIED', 'UNSPECIFIED', 'UNSPECIFIED', ('UNSPECIFIED'), ('UNSPECIFIED'), ('UNSPECIFIED') ) ;
#196 = APPROVAL_ROLE ( '' ) ;
#197 = AXIS2_PLACEMENT_3D ( 'NONE', #49, #299, #17 ) ;
#198 = EDGE_LOOP ( 'NONE', ( #368 ) ) ;
#199 = CALENDAR_DATE ( 2023, 20, 12 ) ;
#200 = LINE ( 'NONE', #92, #291 ) ;
#201 = VERTEX_POINT ( 'NONE', #273 ) ;
#202 = CALENDAR_DATE ( 2023, 20, 12 ) ;
#203 = EDGE_LOOP ( 'NONE', ( #82 ) ) ;
#204 = AXIS2_PLACEMENT_3D ( 'NONE', #332, #42, #269 ) ;
#205 = DIRECTION ( 'NONE',  ( 1.000000000000000000, 0.000000000000000000, -0.000000000000000000 ) ) ;
#206 = CARTESIAN_POINT ( 'NONE',  ( 6.375000000000000000, 7.375000000000000888, 0.1150000000000000050 ) ) ;
#207 = EDGE_CURVE ( 'NONE', #306, #1, #72, .T. ) ;
#208 = FACE_BOUND ( 'NONE', #65, .T. ) ;
#209 = CLOSED_SHELL ( 'NONE', ( #31, #235, #210, #218, #290, #180, #141, #151, #2, #99 ) ) ;
#210 = ADVANCED_FACE ( 'NONE', ( #274, #129 ), #191, .F. ) ;
#211 = FACE_OUTER_BOUND ( 'NONE', #4, .T. ) ;
#212 = VERTEX_POINT ( 'NONE', #276 ) ;
#213 = ORIENTED_EDGE ( 'NONE', *, *, #277, .F. ) ;
#214 = CARTESIAN_POINT ( 'NONE',  ( -6.375000000000000000, 6.993530863780510092E-16, -0.1150000000000000050 ) ) ;
#215 = CARTESIAN_POINT ( 'NONE',  ( 6.250000000000000000, -7.125000000000000000, 0.1150000000000000050 ) ) ;
#216 = FACE_OUTER_BOUND ( 'NONE', #279, .T. ) ;
#217 = CARTESIAN_POINT ( 'NONE',  ( -5.999999999999999112, -7.125000000000000000, 0.1150000000000000050 ) ) ;
#218 = ADVANCED_FACE ( 'NONE', ( #121, #76 ), #298, .F. ) ;
#219 = VECTOR ( 'NONE', #74, 39.37007874015748143 ) ;
#220 = EDGE_LOOP ( 'NONE', ( #143, #213, #358, #178 ) ) ;
#221 = LINE ( 'NONE', #160, #328 ) ;
#222 = CARTESIAN_POINT ( 'NONE',  ( 6.250000000000000000, 7.125000000000000000, -0.1150000000000000050 ) ) ;
#223 = PERSON_AND_ORGANIZATION ( #195, #107 ) ;
#224 = ORIENTED_EDGE ( 'NONE', *, *, #230, .T. ) ;
#225 = AXIS2_PLACEMENT_3D ( 'NONE', #104, #268, #156 ) ;
#226 = PERSON_AND_ORGANIZATION_ROLE ( 'creator' ) ;
#227 = ORIENTED_EDGE ( 'NONE', *, *, #230, .F. ) ;
#228 = APPLICATION_PROTOCOL_DEFINITION ( 'international standard', 'config_control_design', 1994, #264 ) ;
#229 = PLANE ( 'NONE',  #153 ) ;
#230 = EDGE_CURVE ( 'NONE', #66, #128, #361, .T. ) ;
#231 = ORIENTED_EDGE ( 'NONE', *, *, #70, .F. ) ;
#232 = VECTOR ( 'NONE', #154, 39.37007874015748143 ) ;
#233 = DIRECTION ( 'NONE',  ( 0.000000000000000000, 0.000000000000000000, 1.000000000000000000 ) ) ;
#234 = PLANE ( 'NONE',  #365 ) ;
#235 = ADVANCED_FACE ( 'NONE', ( #216, #211 ), #188, .F. ) ;
#236 = CARTESIAN_POINT ( 'NONE',  ( -6.125000000000000000, 7.125000000000000000, 0.000000000000000000 ) ) ;
#237 = FACE_OUTER_BOUND ( 'NONE', #311, .T. ) ;
#238 = VECTOR ( 'NONE', #122, 39.37007874015748143 ) ;
#239 = DIRECTION ( 'NONE',  ( 0.000000000000000000, 0.000000000000000000, 1.000000000000000000 ) ) ;
#240 = LINE ( 'NONE', #105, #262 ) ;
#241 = EDGE_LOOP ( 'NONE', ( #26 ) ) ;
#242 = DIRECTION ( 'NONE',  ( 0.000000000000000000, 0.000000000000000000, 1.000000000000000000 ) ) ;
#243 = LINE ( 'NONE', #155, #219 ) ;
#244 = CARTESIAN_POINT ( 'NONE',  ( -6.375000000000000000, -7.374999999999999112, -0.1150000000000000050 ) ) ;
#245 = DIRECTION ( 'NONE',  ( 1.000000000000000000, 0.000000000000000000, 0.000000000000000000 ) ) ;
#246 = CC_DESIGN_APPROVAL ( #370, ( #192 ) ) ;
#247 = SECURITY_CLASSIFICATION_LEVEL ( 'unclassified' ) ;
#248 = ORIENTED_EDGE ( 'NONE', *, *, #367, .T. ) ;
#249 = APPROVAL_ROLE ( '' ) ;
#250 = VERTEX_POINT ( 'NONE', #244 ) ;
#251 = DATE_AND_TIME ( #78, #58 ) ;
#252 = CC_DESIGN_APPROVAL ( #152, ( #95 ) ) ;
#253 = ORIENTED_EDGE ( 'NONE', *, *, #336, .T. ) ;
#254 = CIRCLE ( 'NONE', #204, 0.1250000000000004441 ) ;
#255 = DIRECTION ( 'NONE',  ( 0.000000000000000000, 0.000000000000000000, 1.000000000000000000 ) ) ;
#256 = APPROVAL_PERSON_ORGANIZATION ( #339, #152, #196 ) ;
#257 = EDGE_LOOP ( 'NONE', ( #103 ) ) ;
#258 = EDGE_CURVE ( 'NONE', #101, #101, #41, .T. ) ;
#259 = FACE_OUTER_BOUND ( 'NONE', #354, .T. ) ;
#260 = FACE_BOUND ( 'NONE', #29, .T. ) ;
#261 = EDGE_CURVE ( 'NONE', #250, #201, #106, .T. ) ;
#262 = VECTOR ( 'NONE', #189, 39.37007874015748143 ) ;
#263 = FACE_BOUND ( 'NONE', #203, .T. ) ;
#264 = APPLICATION_CONTEXT ( 'configuration controlled 3d designs of mechanical parts and assemblies' ) ;
#265 = CARTESIAN_POINT ( 'NONE',  ( -6.375000000000000000, -7.375000000000000000, 0.000000000000000000 ) ) ;
#266 = CARTESIAN_POINT ( 'NONE',  ( 6.250000000000000000, 7.125000000000000000, 0.1150000000000000050 ) ) ;
#267 = SHAPE_DEFINITION_REPRESENTATION ( #362, #347 ) ;
#268 = DIRECTION ( 'NONE',  ( 0.000000000000000000, 0.000000000000000000, 1.000000000000000000 ) ) ;
#269 = DIRECTION ( 'NONE',  ( 1.000000000000000000, 0.000000000000000000, 0.000000000000000000 ) ) ;
#270 = ORIENTED_EDGE ( 'NONE', *, *, #293, .T. ) ;
#271 = DIRECTION ( 'NONE',  ( 0.000000000000000000, 1.000000000000000000, -0.000000000000000000 ) ) ;
#272 = ORIENTED_EDGE ( 'NONE', *, *, #88, .T. ) ;
#273 = CARTESIAN_POINT ( 'NONE',  ( -6.375000000000000000, -7.374999999999999112, 0.1150000000000000050 ) ) ;
#274 = FACE_OUTER_BOUND ( 'NONE', #139, .T. ) ;
#275 = COORDINATED_UNIVERSAL_TIME_OFFSET ( 5, 0, .BEHIND. ) ;
#276 = CARTESIAN_POINT ( 'NONE',  ( 6.250000000000000000, -7.125000000000000000, -0.1150000000000000050 ) ) ;
#277 = EDGE_CURVE ( 'NONE', #159, #306, #96, .T. ) ;
#278 = ORIENTED_EDGE ( 'NONE', *, *, #258, .T. ) ;
#279 = EDGE_LOOP ( 'NONE', ( #90 ) ) ;
#280 = DIRECTION ( 'NONE',  ( -1.000000000000000000, -0.000000000000000000, 0.000000000000000000 ) ) ;
#281 = CC_DESIGN_PERSON_AND_ORGANIZATION_ASSIGNMENT ( #223, #135, ( #158 ) ) ;
#282 = LINE ( 'NONE', #32, #287 ) ;
#283 = CARTESIAN_POINT ( 'NONE',  ( 6.375000000000000000, 7.375000000000003553, 0.000000000000000000 ) ) ;
#284 = CARTESIAN_POINT ( 'NONE',  ( 6.375000000000000000, 7.375000000000000888, -0.1150000000000000050 ) ) ;
#285 = CC_DESIGN_DATE_AND_TIME_ASSIGNMENT ( #138, #312, ( #192 ) ) ;
#286 = CC_DESIGN_SECURITY_CLASSIFICATION ( #95, ( #158 ) ) ;
#287 = VECTOR ( 'NONE', #205, 39.37007874015748143 ) ;
#288 = ORIENTED_EDGE ( 'NONE', *, *, #331, .T. ) ;
#289 = EDGE_CURVE ( 'NONE', #85, #250, #100, .T. ) ;
#290 = ADVANCED_FACE ( 'NONE', ( #237, #326 ), #20, .F. ) ;
#291 = VECTOR ( 'NONE', #280, 39.37007874015748143 ) ;
#292 = DIRECTION ( 'NONE',  ( 0.000000000000000000, -1.000000000000000000, -0.000000000000000000 ) ) ;
#293 = EDGE_CURVE ( 'NONE', #161, #161, #51, .T. ) ;
#294 = CARTESIAN_POINT ( 'NONE',  ( 6.375000000000000000, -7.375000000000000000, 0.000000000000000000 ) ) ;
#295 = DIRECTION ( 'NONE',  ( 1.000000000000000000, -0.000000000000000000, 0.000000000000000000 ) ) ;
#296 = CARTESIAN_POINT ( 'NONE',  ( 6.375000000000000000, 7.375000000000000000, 0.1150000000000000050 ) ) ;
#297 = CIRCLE ( 'NONE', #304, 0.1250000000000004441 ) ;
#298 = CYLINDRICAL_SURFACE ( 'NONE', #225, 0.1250000000000004441 ) ;
#299 = DIRECTION ( 'NONE',  ( -0.000000000000000000, -0.000000000000000000, -1.000000000000000000 ) ) ;
#300 = CARTESIAN_POINT ( 'NONE',  ( -6.125000000000000000, -7.125000000000000000, -0.1150000000000000050 ) ) ;
#301 = APPROVAL_STATUS ( 'not_yet_approved' ) ;
#302 = CARTESIAN_POINT ( 'NONE',  ( 6.125000000000000000, -7.125000000000000000, 0.000000000000000000 ) ) ;
#303 = APPROVAL_STATUS ( 'not_yet_approved' ) ;
#304 = AXIS2_PLACEMENT_3D ( 'NONE', #34, #375, #147 ) ;
#305 = PERSON_AND_ORGANIZATION_ROLE ( 'creator' ) ;
#306 = VERTEX_POINT ( 'NONE', #193 ) ;
#307 = EDGE_CURVE ( 'NONE', #360, #360, #8, .T. ) ;
#308 = DATE_AND_TIME ( #199, #364 ) ;
#309 = ORIENTED_EDGE ( 'NONE', *, *, #182, .T. ) ;
#310 = ORIENTED_EDGE ( 'NONE', *, *, #307, .F. ) ;
#311 = EDGE_LOOP ( 'NONE', ( #170 ) ) ;
#312 = DATE_TIME_ROLE ( 'creation_date' ) ;
#313 = EDGE_LOOP ( 'NONE', ( #373, #181, #224, #150 ) ) ;
#314 = FACE_OUTER_BOUND ( 'NONE', #86, .T. ) ;
#315 = FACE_OUTER_BOUND ( 'NONE', #220, .T. ) ;
#316 = PLANE ( 'NONE',  #13 ) ;
#317 = AXIS2_PLACEMENT_3D ( 'NONE', #330, #71, #185 ) ;
#318 = APPLICATION_CONTEXT ( 'configuration controlled 3d designs of mechanical parts and assemblies' ) ;
#319 = AXIS2_PLACEMENT_3D ( 'NONE', #40, #125, #239 ) ;
#320 = DIRECTION ( 'NONE',  ( -0.000000000000000000, -0.000000000000000000, -1.000000000000000000 ) ) ;
#321 = LENGTH_MEASURE_WITH_UNIT ( LENGTH_MEASURE( 0.02539999999999999897 ), #130 );
#322 = ORIENTED_EDGE ( 'NONE', *, *, #336, .F. ) ;
#323 = FACE_OUTER_BOUND ( 'NONE', #313, .T. ) ;
#324 = ORIENTED_EDGE ( 'NONE', *, *, #307, .T. ) ;
#325 = DIRECTION ( 'NONE',  ( 1.000000000000000000, 0.000000000000000000, 0.000000000000000000 ) ) ;
#326 = FACE_OUTER_BOUND ( 'NONE', #198, .T. ) ;
#327 = CC_DESIGN_APPROVAL ( #9, ( #158 ) ) ;
#328 = VECTOR ( 'NONE', #271, 39.37007874015748143 ) ;
#329 = ORIENTED_EDGE ( 'NONE', *, *, #182, .F. ) ;
#330 = CARTESIAN_POINT ( 'NONE',  ( -6.375000000000000000, 7.375000000000000000, 0.000000000000000000 ) ) ;
#331 = EDGE_CURVE ( 'NONE', #157, #157, #36, .T. ) ;
#332 = CARTESIAN_POINT ( 'NONE',  ( 6.125000000000000000, -7.125000000000000000, -0.1150000000000000050 ) ) ;
#333 = COORDINATED_UNIVERSAL_TIME_OFFSET ( 5, 0, .BEHIND. ) ;
#334 = UNCERTAINTY_MEASURE_WITH_UNIT (LENGTH_MEASURE( 1.000000000000000082E-05 ), #69, 'distance_accuracy_value', 'NONE');
#335 = APPROVAL_STATUS ( 'not_yet_approved' ) ;
#336 = EDGE_CURVE ( 'NONE', #128, #159, #353, .T. ) ;
#337 = ORIENTED_EDGE ( 'NONE', *, *, #102, .F. ) ;
#338 = AXIS2_PLACEMENT_3D ( 'NONE', #149, #63, #35 ) ;
#339 = PERSON_AND_ORGANIZATION ( #195, #107 ) ;
#340 = ORIENTED_EDGE ( 'NONE', *, *, #352, .F. ) ;
#341 = PERSON_AND_ORGANIZATION_ROLE ( 'design_owner' ) ;
#342 = DIRECTION ( 'NONE',  ( 1.000000000000000000, 0.000000000000000000, 0.000000000000000000 ) ) ;
#343 = DIRECTION ( 'NONE',  ( -2.194048898440950109E-16, -1.000000000000000000, 0.000000000000000000 ) ) ;
#344 = AXIS2_PLACEMENT_3D ( 'NONE', #186, #11, #166 ) ;
#345 = EDGE_CURVE ( 'NONE', #212, #212, #254, .T. ) ;
#346 = CARTESIAN_POINT ( 'NONE',  ( -6.125000000000000000, 7.125000000000000000, 0.1150000000000000050 ) ) ;
#347 = ADVANCED_BREP_SHAPE_REPRESENTATION ( 'BP1614ABS_Default', ( #33, #113 ), #81 ) ;
#348 = CARTESIAN_POINT ( 'NONE',  ( -3.496765431890259976E-16, 6.993530863780510092E-16, -0.1150000000000000050 ) ) ;
#349 = VECTOR ( 'NONE', #94, 39.37007874015748143 ) ;
#350 = LOCAL_TIME ( 14, 43, 43.00000000000000000, #165 ) ;
#351 = DIRECTION ( 'NONE',  ( 0.000000000000000000, 0.000000000000000000, 1.000000000000000000 ) ) ;
#352 = EDGE_CURVE ( 'NONE', #159, #201, #243, .T. ) ;
#353 = LINE ( 'NONE', #296, #238 ) ;
#354 = EDGE_LOOP ( 'NONE', ( #329, #340, #322, #227 ) ) ;
#355 = AXIS2_PLACEMENT_3D ( 'NONE', #236, #242, #325 ) ;
#356 = CARTESIAN_POINT ( 'NONE',  ( 6.375000000000000000, 7.375000000000000000, 0.000000000000000000 ) ) ;
#357 = CARTESIAN_POINT ( 'NONE',  ( -5.999999999999999112, 7.125000000000000000, 0.1150000000000000050 ) ) ;
#358 = ORIENTED_EDGE ( 'NONE', *, *, #352, .T. ) ;
#359 = DIRECTION ( 'NONE',  ( 0.000000000000000000, 0.000000000000000000, -1.000000000000000000 ) ) ;
#360 = VERTEX_POINT ( 'NONE', #266 ) ;
#361 = LINE ( 'NONE', #12, #232 ) ;
#362 = PRODUCT_DEFINITION_SHAPE ( 'NONE', 'NONE',  #192 ) ;
#363 = VERTEX_POINT ( 'NONE', #222 ) ;
#364 = LOCAL_TIME ( 14, 43, 43.00000000000000000, #84 ) ;
#365 = AXIS2_PLACEMENT_3D ( 'NONE', #348, #60, #176 ) ;
#366 = APPLICATION_PROTOCOL_DEFINITION ( 'international standard', 'config_control_design', 1994, #318 ) ;
#367 = EDGE_CURVE ( 'NONE', #66, #85, #240, .T. ) ;
#368 = ORIENTED_EDGE ( 'NONE', *, *, #345, .T. ) ;
#369 = PERSON_AND_ORGANIZATION ( #195, #107 ) ;
#370 = APPROVAL ( #301, 'UNSPECIFIED' ) ;
#371 = PRODUCT ( 'BP1614ABS_Default', 'BP1614ABS_Default', '', ( #25 ) ) ;
#372 = CIRCLE ( 'NONE', #73, 0.1250000000000004441 ) ;
#373 = ORIENTED_EDGE ( 'NONE', *, *, #7, .T. ) ;
#374 = DIRECTION ( 'NONE',  ( 1.000000000000000000, 0.000000000000000000, 0.000000000000000000 ) ) ;
#375 = DIRECTION ( 'NONE',  ( -0.000000000000000000, -0.000000000000000000, -1.000000000000000000 ) ) ;
#376 = DIMENSIONAL_EXPONENTS ( 1.000000000000000000, 0.000000000000000000, 0.000000000000000000, 0.000000000000000000, 0.000000000000000000, 0.000000000000000000, 0.000000000000000000 ) ;
ENDSEC;
END-ISO-10303-21;
