ISO-10303-21;
HEADER;
FILE_DESCRIPTION (( 'STEP AP203' ),
    '1' );
FILE_NAME ('BP1210ABS_Default.step',
    '2023-12-20T19:43:38',
    ( 'Windows User' ),
    ( 'AUTOMATION DIRECT' ),
    'SwSTEP 2.0',
    'SolidWorks 2023',
    '' );
FILE_SCHEMA (( 'CONFIG_CONTROL_DESIGN' ));
ENDSEC;

DATA;
#1 = CARTESIAN_POINT ( 'NONE',  ( 0.000000000000000000, 0.000000000000000000, 0.000000000000000000 ) ) ;
#2 = ADVANCED_FACE ( 'NONE', ( #159, #106 ), #45, .F. ) ;
#3 = DIRECTION ( 'NONE',  ( -1.598521340292689972E-16, -1.000000000000000000, 0.000000000000000000 ) ) ;
#4 = PERSON_AND_ORGANIZATION ( #61, #47 ) ;
#5 =( NAMED_UNIT ( * ) SI_UNIT ( $, .STERADIAN. ) SOLID_ANGLE_UNIT ( ) );
#6 = MECHANICAL_CONTEXT ( 'NONE', #212, 'mechanical' ) ;
#7 = EDGE_CURVE ( 'NONE', #304, #73, #133, .T. ) ;
#8 = CARTESIAN_POINT ( 'NONE',  ( 4.125000000000000000, 5.125000000000000000, 0.1150000000000000050 ) ) ;
#9 = ORIENTED_EDGE ( 'NONE', *, *, #210, .T. ) ;
#10 = DIRECTION ( 'NONE',  ( 1.000000000000000000, 0.000000000000000000, 0.000000000000000000 ) ) ;
#11 = EDGE_LOOP ( 'NONE', ( #241 ) ) ;
#12 = EDGE_LOOP ( 'NONE', ( #268, #333, #17, #39 ) ) ;
#13 = AXIS2_PLACEMENT_3D ( 'NONE', #340, #252, #22 ) ;
#14 = EDGE_LOOP ( 'NONE', ( #103 ) ) ;
#15 = ORIENTED_EDGE ( 'NONE', *, *, #7, .F. ) ;
#16 = APPROVAL ( #95, 'UNSPECIFIED' ) ;
#17 = ORIENTED_EDGE ( 'NONE', *, *, #237, .T. ) ;
#18 = VECTOR ( 'NONE', #84, 39.37007874015748143 ) ;
#19 = DIRECTION ( 'NONE',  ( 0.000000000000000000, 0.000000000000000000, 1.000000000000000000 ) ) ;
#20 = FACE_OUTER_BOUND ( 'NONE', #360, .T. ) ;
#21 = CARTESIAN_POINT ( 'NONE',  ( -1.398706172756100046E-15, -5.375000000000000888, -0.1150000000000000050 ) ) ;
#22 = DIRECTION ( 'NONE',  ( 1.000000000000000000, 0.000000000000000000, 0.000000000000000000 ) ) ;
#23 = FACE_OUTER_BOUND ( 'NONE', #276, .T. ) ;
#24 = DIRECTION ( 'NONE',  ( 6.505610105842339413E-17, 1.000000000000000000, 0.000000000000000000 ) ) ;
#25 = CC_DESIGN_PERSON_AND_ORGANIZATION_ASSIGNMENT ( #202, #66, ( #98 ) ) ;
#26 = DIRECTION ( 'NONE',  ( -6.505610105842339413E-17, -1.000000000000000000, -0.000000000000000000 ) ) ;
#27 = DIRECTION ( 'NONE',  ( 1.000000000000000000, -6.505610105842339413E-17, 0.000000000000000000 ) ) ;
#28 = COORDINATED_UNIVERSAL_TIME_OFFSET ( 5, 0, .BEHIND. ) ;
#29 = MANIFOLD_SOLID_BREP ( 'Solid1', #96 ) ;
#30 = DATE_AND_TIME ( #328, #148 ) ;
#31 = VERTEX_POINT ( 'NONE', #145 ) ;
#32 = PERSON_AND_ORGANIZATION ( #61, #47 ) ;
#33 = CARTESIAN_POINT ( 'NONE',  ( 4.125000000000000000, -5.125000000000000000, 0.1150000000000000050 ) ) ;
#34 = CIRCLE ( 'NONE', #226, 0.1249999999999999029 ) ;
#35 = EDGE_CURVE ( 'NONE', #327, #327, #285, .T. ) ;
#36 = DESIGN_CONTEXT ( 'detailed design', #94, 'design' ) ;
#37 =( CONVERSION_BASED_UNIT ( 'INCH', #121 ) LENGTH_UNIT ( ) NAMED_UNIT ( #326 ) );
#38 = CARTESIAN_POINT ( 'NONE',  ( -4.000000000000000000, 5.125000000000000000, 0.1150000000000000050 ) ) ;
#39 = ORIENTED_EDGE ( 'NONE', *, *, #363, .F. ) ;
#40 = ORIENTED_EDGE ( 'NONE', *, *, #210, .F. ) ;
#41 = ORIENTED_EDGE ( 'NONE', *, *, #237, .F. ) ;
#42 = ORIENTED_EDGE ( 'NONE', *, *, #299, .F. ) ;
#43 = APPROVAL_PERSON_ORGANIZATION ( #289, #16, #292 ) ;
#44 = LOCAL_TIME ( 14, 43, 38.00000000000000000, #28 ) ;
#45 = CYLINDRICAL_SURFACE ( 'NONE', #80, 0.1249999999999999029 ) ;
#46 = FACE_BOUND ( 'NONE', #301, .T. ) ;
#47 = ORGANIZATION ( 'UNSPECIFIED', 'UNSPECIFIED', '' ) ;
#48 = DIRECTION ( 'NONE',  ( 1.000000000000000000, 1.598521340292689972E-16, -0.000000000000000000 ) ) ;
#49 = DIRECTION ( 'NONE',  ( 1.000000000000000000, 0.000000000000000000, 0.000000000000000000 ) ) ;
#50 = DIRECTION ( 'NONE',  ( 1.000000000000000000, 0.000000000000000000, 0.000000000000000000 ) ) ;
#51 = EDGE_CURVE ( 'NONE', #331, #304, #135, .T. ) ;
#52 = DIRECTION ( 'NONE',  ( 0.000000000000000000, 0.000000000000000000, 1.000000000000000000 ) ) ;
#53 = FACE_OUTER_BOUND ( 'NONE', #313, .T. ) ;
#54 = DIRECTION ( 'NONE',  ( -1.598521340292689972E-16, 1.000000000000000000, 0.000000000000000000 ) ) ;
#55 = PERSON_AND_ORGANIZATION_ROLE ( 'design_owner' ) ;
#56 = CARTESIAN_POINT ( 'NONE',  ( 4.375000000000000000, -5.375000000000000888, 0.1150000000000000050 ) ) ;
#57 = EDGE_CURVE ( 'NONE', #101, #154, #339, .T. ) ;
#58 = VECTOR ( 'NONE', #332, 39.37007874015748143 ) ;
#59 = SECURITY_CLASSIFICATION_LEVEL ( 'unclassified' ) ;
#60 = CARTESIAN_POINT ( 'NONE',  ( -4.000000000000000000, 5.125000000000000000, -0.1150000000000000050 ) ) ;
#61 = PERSON ( 'UNSPECIFIED', 'UNSPECIFIED', 'UNSPECIFIED', ('UNSPECIFIED'), ('UNSPECIFIED'), ('UNSPECIFIED') ) ;
#62 =( NAMED_UNIT ( * ) PLANE_ANGLE_UNIT ( ) SI_UNIT ( $, .RADIAN. ) );
#63 = EDGE_CURVE ( 'NONE', #229, #101, #76, .T. ) ;
#64 = PERSON_AND_ORGANIZATION_ROLE ( 'classification_officer' ) ;
#65 = CIRCLE ( 'NONE', #158, 0.1249999999999999029 ) ;
#66 = PERSON_AND_ORGANIZATION_ROLE ( 'creator' ) ;
#67 = LOCAL_TIME ( 14, 43, 38.00000000000000000, #240 ) ;
#68 = DIRECTION ( 'NONE',  ( 1.000000000000000000, 0.000000000000000000, 0.000000000000000000 ) ) ;
#69 = ORIENTED_EDGE ( 'NONE', *, *, #366, .T. ) ;
#70 = ORIENTED_EDGE ( 'NONE', *, *, #35, .T. ) ;
#71 = ORIENTED_EDGE ( 'NONE', *, *, #284, .F. ) ;
#72 = ADVANCED_FACE ( 'NONE', ( #78, #162 ), #77, .F. ) ;
#73 = VERTEX_POINT ( 'NONE', #222 ) ;
#74 = FACE_BOUND ( 'NONE', #253, .T. ) ;
#75 = AXIS2_PLACEMENT_3D ( 'NONE', #107, #277, #311 ) ;
#76 = LINE ( 'NONE', #194, #199 ) ;
#77 = CYLINDRICAL_SURFACE ( 'NONE', #13, 0.1249999999999999029 ) ;
#78 = FACE_OUTER_BOUND ( 'NONE', #11, .T. ) ;
#79 = DIRECTION ( 'NONE',  ( 1.000000000000000000, 0.000000000000000000, 0.000000000000000000 ) ) ;
#80 = AXIS2_PLACEMENT_3D ( 'NONE', #228, #19, #305 ) ;
#81 = CARTESIAN_POINT ( 'NONE',  ( -4.125000000000000000, -5.125000000000000000, -0.1150000000000000050 ) ) ;
#82 = CARTESIAN_POINT ( 'NONE',  ( -4.375000000000000000, 5.375000000000000888, 0.1150000000000000050 ) ) ;
#83 = DATE_TIME_ROLE ( 'creation_date' ) ;
#84 = DIRECTION ( 'NONE',  ( -0.000000000000000000, -0.000000000000000000, -1.000000000000000000 ) ) ;
#85 = DATE_AND_TIME ( #355, #67 ) ;
#86 = CC_DESIGN_DATE_AND_TIME_ASSIGNMENT ( #325, #178, ( #213 ) ) ;
#87 = APPROVAL_PERSON_ORGANIZATION ( #174, #190, #321 ) ;
#88 = CARTESIAN_POINT ( 'NONE',  ( 4.250000000000000000, -5.125000000000000000, -0.1150000000000000050 ) ) ;
#89 = COORDINATED_UNIVERSAL_TIME_OFFSET ( 5, 0, .BEHIND. ) ;
#90 = ADVANCED_FACE ( 'NONE', ( #20 ), #365, .T. ) ;
#91 = DIRECTION ( 'NONE',  ( -0.000000000000000000, -0.000000000000000000, -1.000000000000000000 ) ) ;
#92 = DATE_AND_TIME ( #208, #341 ) ;
#93 =( LENGTH_UNIT ( ) NAMED_UNIT ( * ) SI_UNIT ( $, .METRE. ) );
#94 = APPLICATION_CONTEXT ( 'configuration controlled 3d designs of mechanical parts and assemblies' ) ;
#95 = APPROVAL_STATUS ( 'not_yet_approved' ) ;
#96 = CLOSED_SHELL ( 'NONE', ( #336, #72, #2, #231, #175, #90, #291, #248, #356, #157 ) ) ;
#97 = EDGE_LOOP ( 'NONE', ( #247 ) ) ;
#98 = PRODUCT_DEFINITION_FORMATION_WITH_SPECIFIED_SOURCE ( 'ANY', '', #270, .NOT_KNOWN. ) ;
#99 = FACE_BOUND ( 'NONE', #124, .T. ) ;
#100 = ORIENTED_EDGE ( 'NONE', *, *, #274, .F. ) ;
#101 = VERTEX_POINT ( 'NONE', #105 ) ;
#102 = EDGE_CURVE ( 'NONE', #297, #73, #225, .T. ) ;
#103 = ORIENTED_EDGE ( 'NONE', *, *, #104, .F. ) ;
#104 = EDGE_CURVE ( 'NONE', #322, #322, #309, .T. ) ;
#105 = CARTESIAN_POINT ( 'NONE',  ( 4.375000000000000000, 5.375000000000000888, 0.1150000000000000050 ) ) ;
#106 = FACE_OUTER_BOUND ( 'NONE', #362, .T. ) ;
#107 = CARTESIAN_POINT ( 'NONE',  ( -4.375000000000000000, -5.375000000000000888, 0.000000000000000000 ) ) ;
#108 = EDGE_LOOP ( 'NONE', ( #219, #369, #335, #269 ) ) ;
#109 = VECTOR ( 'NONE', #195, 39.37007874015748143 ) ;
#110 = CARTESIAN_POINT ( 'NONE',  ( 4.375000000000000000, 5.375000000000001776, 0.000000000000000000 ) ) ;
#111 = FACE_BOUND ( 'NONE', #128, .T. ) ;
#112 = DIRECTION ( 'NONE',  ( -1.000000000000000000, -1.598521340292689972E-16, 0.000000000000000000 ) ) ;
#113 = CARTESIAN_POINT ( 'NONE',  ( -4.375000000000000000, -5.375000000000000888, 0.1150000000000000050 ) ) ;
#114 = AXIS2_PLACEMENT_3D ( 'NONE', #192, #254, #49 ) ;
#115 = DIRECTION ( 'NONE',  ( 0.000000000000000000, 1.000000000000000000, -0.000000000000000000 ) ) ;
#116 = VECTOR ( 'NONE', #117, 39.37007874015748143 ) ;
#117 = DIRECTION ( 'NONE',  ( -1.000000000000000000, 1.598521340292689972E-16, -0.000000000000000000 ) ) ;
#118 = SHAPE_DEFINITION_REPRESENTATION ( #307, #119 ) ;
#119 = ADVANCED_BREP_SHAPE_REPRESENTATION ( 'BP1210ABS_Default', ( #29, #374 ), #373 ) ;
#120 = DIRECTION ( 'NONE',  ( 0.000000000000000000, 0.000000000000000000, 1.000000000000000000 ) ) ;
#121 = LENGTH_MEASURE_WITH_UNIT ( LENGTH_MEASURE( 0.02539999999999999897 ), #93 );
#122 = APPROVAL_STATUS ( 'not_yet_approved' ) ;
#123 = VERTEX_POINT ( 'NONE', #38 ) ;
#124 = EDGE_LOOP ( 'NONE', ( #357 ) ) ;
#125 = CARTESIAN_POINT ( 'NONE',  ( -4.000000000000000000, -5.125000000000000000, 0.1150000000000000050 ) ) ;
#126 = AXIS2_PLACEMENT_3D ( 'NONE', #371, #52, #350 ) ;
#127 = ORIENTED_EDGE ( 'NONE', *, *, #363, .T. ) ;
#128 = EDGE_LOOP ( 'NONE', ( #242 ) ) ;
#129 = EDGE_LOOP ( 'NONE', ( #337 ) ) ;
#130 = APPROVAL ( #122, 'UNSPECIFIED' ) ;
#131 = EDGE_LOOP ( 'NONE', ( #185 ) ) ;
#132 = CIRCLE ( 'NONE', #181, 0.1249999999999999029 ) ;
#133 = LINE ( 'NONE', #21, #179 ) ;
#134 = PLANE ( 'NONE',  #347 ) ;
#135 = LINE ( 'NONE', #364, #275 ) ;
#136 = CARTESIAN_POINT ( 'NONE',  ( 4.375000000000000000, -5.375000000000000888, 0.000000000000000000 ) ) ;
#137 = VECTOR ( 'NONE', #310, 39.37007874015748143 ) ;
#138 = CARTESIAN_POINT ( 'NONE',  ( 4.375000000000000000, -1.748382715945129988E-16, -0.1150000000000000050 ) ) ;
#139 = CARTESIAN_POINT ( 'NONE',  ( 4.375000000000000000, 5.375000000000000888, 0.1150000000000000050 ) ) ;
#140 = CARTESIAN_POINT ( 'NONE',  ( -1.398706172756100046E-15, -1.051474920078889943E-16, 0.1150000000000000050 ) ) ;
#141 = EDGE_CURVE ( 'NONE', #149, #149, #132, .T. ) ;
#142 = LOCAL_TIME ( 14, 43, 38.00000000000000000, #146 ) ;
#143 = CARTESIAN_POINT ( 'NONE',  ( -4.125000000000000000, 5.125000000000000000, 0.1150000000000000050 ) ) ;
#144 = APPROVAL_ROLE ( '' ) ;
#145 = CARTESIAN_POINT ( 'NONE',  ( 4.250000000000000000, 5.125000000000000000, 0.1150000000000000050 ) ) ;
#146 = COORDINATED_UNIVERSAL_TIME_OFFSET ( 5, 0, .BEHIND. ) ;
#147 = PRODUCT_RELATED_PRODUCT_CATEGORY ( 'detail', '', ( #270 ) ) ;
#148 = LOCAL_TIME ( 14, 43, 38.00000000000000000, #206 ) ;
#149 = VERTEX_POINT ( 'NONE', #125 ) ;
#150 = APPROVAL_DATE_TIME ( #92, #16 ) ;
#151 = LINE ( 'NONE', #209, #58 ) ;
#152 = CARTESIAN_POINT ( 'NONE',  ( -1.398706172756100046E-15, -1.748382715945129988E-16, -0.1150000000000000050 ) ) ;
#153 = ORIENTED_EDGE ( 'NONE', *, *, #51, .F. ) ;
#154 = VERTEX_POINT ( 'NONE', #368 ) ;
#155 = ORIENTED_EDGE ( 'NONE', *, *, #57, .T. ) ;
#156 = ORIENTED_EDGE ( 'NONE', *, *, #343, .F. ) ;
#157 = ADVANCED_FACE ( 'NONE', ( #338, #111, #74, #46, #160 ), #134, .T. ) ;
#158 = AXIS2_PLACEMENT_3D ( 'NONE', #8, #267, #68 ) ;
#159 = FACE_OUTER_BOUND ( 'NONE', #220, .T. ) ;
#160 = FACE_OUTER_BOUND ( 'NONE', #334, .T. ) ;
#161 = AXIS2_PLACEMENT_3D ( 'NONE', #152, #296, #295 ) ;
#162 = FACE_OUTER_BOUND ( 'NONE', #197, .T. ) ;
#163 = CARTESIAN_POINT ( 'NONE',  ( -4.125000000000000000, -5.125000000000000000, 0.1150000000000000050 ) ) ;
#164 = EDGE_CURVE ( 'NONE', #205, #205, #34, .T. ) ;
#165 = DIRECTION ( 'NONE',  ( -0.000000000000000000, -0.000000000000000000, -1.000000000000000000 ) ) ;
#166 = CC_DESIGN_APPROVAL ( #130, ( #213 ) ) ;
#167 = FACE_OUTER_BOUND ( 'NONE', #108, .T. ) ;
#168 = DIRECTION ( 'NONE',  ( 1.000000000000000000, 0.000000000000000000, -0.000000000000000000 ) ) ;
#169 = UNCERTAINTY_MEASURE_WITH_UNIT (LENGTH_MEASURE( 1.000000000000000082E-05 ), #37, 'distance_accuracy_value', 'NONE');
#170 = DIRECTION ( 'NONE',  ( 0.000000000000000000, 0.000000000000000000, 1.000000000000000000 ) ) ;
#171 = PERSON_AND_ORGANIZATION ( #61, #47 ) ;
#172 = AXIS2_PLACEMENT_3D ( 'NONE', #281, #170, #203 ) ;
#173 = DIRECTION ( 'NONE',  ( -0.000000000000000000, -0.000000000000000000, -1.000000000000000000 ) ) ;
#174 = PERSON_AND_ORGANIZATION ( #61, #47 ) ;
#175 = ADVANCED_FACE ( 'NONE', ( #283, #287 ), #349, .F. ) ;
#176 = VERTEX_POINT ( 'NONE', #290 ) ;
#177 = CALENDAR_DATE ( 2023, 20, 12 ) ;
#178 = DATE_TIME_ROLE ( 'classification_date' ) ;
#179 = VECTOR ( 'NONE', #342, 39.37007874015748143 ) ;
#180 = FACE_BOUND ( 'NONE', #14, .T. ) ;
#181 = AXIS2_PLACEMENT_3D ( 'NONE', #163, #279, #306 ) ;
#182 = PRODUCT_DEFINITION ( 'UNKNOWN', '', #98, #36 ) ;
#183 = DIRECTION ( 'NONE',  ( 0.000000000000000000, 0.000000000000000000, 1.000000000000000000 ) ) ;
#184 = ORIENTED_EDGE ( 'NONE', *, *, #104, .T. ) ;
#185 = ORIENTED_EDGE ( 'NONE', *, *, #348, .F. ) ;
#186 = VERTEX_POINT ( 'NONE', #370 ) ;
#187 = ORIENTED_EDGE ( 'NONE', *, *, #299, .T. ) ;
#188 = CC_DESIGN_APPROVAL ( #190, ( #98 ) ) ;
#189 = ORIENTED_EDGE ( 'NONE', *, *, #348, .T. ) ;
#190 = APPROVAL ( #351, 'UNSPECIFIED' ) ;
#191 = ORIENTED_EDGE ( 'NONE', *, *, #223, .F. ) ;
#192 = CARTESIAN_POINT ( 'NONE',  ( 4.125000000000000000, -5.125000000000000000, -0.1150000000000000050 ) ) ;
#193 = AXIS2_PLACEMENT_3D ( 'NONE', #81, #345, #198 ) ;
#194 = CARTESIAN_POINT ( 'NONE',  ( -4.375000000000000000, 5.375000000000000888, 0.1150000000000000050 ) ) ;
#195 = DIRECTION ( 'NONE',  ( 0.000000000000000000, -0.000000000000000000, -1.000000000000000000 ) ) ;
#196 = EDGE_LOOP ( 'NONE', ( #42 ) ) ;
#197 = EDGE_LOOP ( 'NONE', ( #187 ) ) ;
#198 = DIRECTION ( 'NONE',  ( 1.000000000000000000, 0.000000000000000000, 0.000000000000000000 ) ) ;
#199 = VECTOR ( 'NONE', #48, 39.37007874015748143 ) ;
#200 = DIRECTION ( 'NONE',  ( 0.000000000000000000, 0.000000000000000000, 1.000000000000000000 ) ) ;
#201 = FACE_OUTER_BOUND ( 'NONE', #250, .T. ) ;
#202 = PERSON_AND_ORGANIZATION ( #61, #47 ) ;
#203 = DIRECTION ( 'NONE',  ( 1.000000000000000000, 0.000000000000000000, 0.000000000000000000 ) ) ;
#204 = DIRECTION ( 'NONE',  ( 1.000000000000000000, 0.000000000000000000, 0.000000000000000000 ) ) ;
#205 = VERTEX_POINT ( 'NONE', #60 ) ;
#206 = COORDINATED_UNIVERSAL_TIME_OFFSET ( 5, 0, .BEHIND. ) ;
#207 = CARTESIAN_POINT ( 'NONE',  ( 4.250000000000000000, 5.125000000000000000, -0.1150000000000000050 ) ) ;
#208 = CALENDAR_DATE ( 2023, 20, 12 ) ;
#209 = CARTESIAN_POINT ( 'NONE',  ( -1.398706172756100046E-15, 5.375000000000000888, -0.1150000000000000050 ) ) ;
#210 = EDGE_CURVE ( 'NONE', #186, #229, #319, .T. ) ;
#211 = PERSON_AND_ORGANIZATION ( #61, #47 ) ;
#212 = APPLICATION_CONTEXT ( 'configuration controlled 3d designs of mechanical parts and assemblies' ) ;
#213 = SECURITY_CLASSIFICATION ( '', '', #59 ) ;
#214 = CARTESIAN_POINT ( 'NONE',  ( -4.000000000000000000, -5.125000000000000000, -0.1150000000000000050 ) ) ;
#215 = VECTOR ( 'NONE', #115, 39.37007874015748143 ) ;
#216 = ORIENTED_EDGE ( 'NONE', *, *, #366, .F. ) ;
#217 = CARTESIAN_POINT ( 'NONE',  ( -4.375000000000000000, -5.375000000000000888, 0.000000000000000000 ) ) ;
#218 = ORIENTED_EDGE ( 'NONE', *, *, #223, .T. ) ;
#219 = ORIENTED_EDGE ( 'NONE', *, *, #274, .T. ) ;
#220 = EDGE_LOOP ( 'NONE', ( #272 ) ) ;
#221 = CC_DESIGN_PERSON_AND_ORGANIZATION_ASSIGNMENT ( #171, #323, ( #98 ) ) ;
#222 = CARTESIAN_POINT ( 'NONE',  ( 4.375000000000000000, -5.375000000000000888, -0.1150000000000000050 ) ) ;
#223 = EDGE_CURVE ( 'NONE', #229, #331, #280, .T. ) ;
#224 = CARTESIAN_POINT ( 'NONE',  ( 4.125000000000000000, 5.125000000000000000, -0.1150000000000000050 ) ) ;
#225 = LINE ( 'NONE', #136, #109 ) ;
#226 = AXIS2_PLACEMENT_3D ( 'NONE', #375, #165, #79 ) ;
#227 = CC_DESIGN_PERSON_AND_ORGANIZATION_ASSIGNMENT ( #286, #64, ( #213 ) ) ;
#228 = CARTESIAN_POINT ( 'NONE',  ( -4.125000000000000000, 5.125000000000000000, 0.000000000000000000 ) ) ;
#229 = VERTEX_POINT ( 'NONE', #82 ) ;
#230 = CARTESIAN_POINT ( 'NONE',  ( 4.375000000000000000, -5.375000000000000888, 0.1150000000000000050 ) ) ;
#231 = ADVANCED_FACE ( 'NONE', ( #53, #23 ), #315, .F. ) ;
#232 = CARTESIAN_POINT ( 'NONE',  ( -4.375000000000000000, 5.375000000000000888, 0.000000000000000000 ) ) ;
#233 = CIRCLE ( 'NONE', #249, 0.1249999999999999029 ) ;
#234 = PLANE ( 'NONE',  #358 ) ;
#235 = CIRCLE ( 'NONE', #193, 0.1249999999999999029 ) ;
#236 = CARTESIAN_POINT ( 'NONE',  ( 4.375000000000000000, 5.375000000000000888, 0.000000000000000000 ) ) ;
#237 = EDGE_CURVE ( 'NONE', #297, #186, #312, .T. ) ;
#238 = CALENDAR_DATE ( 2023, 20, 12 ) ;
#239 = VERTEX_POINT ( 'NONE', #214 ) ;
#240 = COORDINATED_UNIVERSAL_TIME_OFFSET ( 5, 0, .BEHIND. ) ;
#241 = ORIENTED_EDGE ( 'NONE', *, *, #141, .F. ) ;
#242 = ORIENTED_EDGE ( 'NONE', *, *, #262, .T. ) ;
#243 = CIRCLE ( 'NONE', #271, 0.1249999999999999029 ) ;
#244 = CARTESIAN_POINT ( 'NONE',  ( 4.375000000000000000, -5.375000000000000888, 0.000000000000000000 ) ) ;
#245 = EDGE_LOOP ( 'NONE', ( #156, #100, #15, #153 ) ) ;
#246 = EDGE_LOOP ( 'NONE', ( #184 ) ) ;
#247 = ORIENTED_EDGE ( 'NONE', *, *, #141, .T. ) ;
#248 = ADVANCED_FACE ( 'NONE', ( #167 ), #234, .T. ) ;
#249 = AXIS2_PLACEMENT_3D ( 'NONE', #143, #173, #50 ) ;
#250 = EDGE_LOOP ( 'NONE', ( #344, #191, #361, #155 ) ) ;
#251 = DIRECTION ( 'NONE',  ( -0.000000000000000000, -0.000000000000000000, -1.000000000000000000 ) ) ;
#252 = DIRECTION ( 'NONE',  ( 0.000000000000000000, 0.000000000000000000, 1.000000000000000000 ) ) ;
#253 = EDGE_LOOP ( 'NONE', ( #69 ) ) ;
#254 = DIRECTION ( 'NONE',  ( -0.000000000000000000, -0.000000000000000000, -1.000000000000000000 ) ) ;
#255 = CC_DESIGN_APPROVAL ( #16, ( #182 ) ) ;
#256 = CARTESIAN_POINT ( 'NONE',  ( -4.375000000000000000, 5.375000000000000888, 0.000000000000000000 ) ) ;
#257 = CARTESIAN_POINT ( 'NONE',  ( -4.375000000000000000, 5.375000000000000888, -0.1150000000000000050 ) ) ;
#258 = FACE_BOUND ( 'NONE', #196, .T. ) ;
#259 = APPROVAL_PERSON_ORGANIZATION ( #32, #130, #144 ) ;
#260 = LINE ( 'NONE', #139, #329 ) ;
#261 = AXIS2_PLACEMENT_3D ( 'NONE', #224, #251, #278 ) ;
#262 = EDGE_CURVE ( 'NONE', #123, #123, #233, .T. ) ;
#263 = APPROVAL_DATE_TIME ( #294, #130 ) ;
#264 = CC_DESIGN_PERSON_AND_ORGANIZATION_ASSIGNMENT ( #4, #354, ( #182 ) ) ;
#265 = APPROVAL_DATE_TIME ( #30, #190 ) ;
#266 = DIRECTION ( 'NONE',  ( 1.000000000000000000, -1.598521340292689972E-16, 0.000000000000000000 ) ) ;
#267 = DIRECTION ( 'NONE',  ( -0.000000000000000000, -0.000000000000000000, -1.000000000000000000 ) ) ;
#268 = ORIENTED_EDGE ( 'NONE', *, *, #7, .T. ) ;
#269 = ORIENTED_EDGE ( 'NONE', *, *, #102, .T. ) ;
#270 = PRODUCT ( 'BP1210ABS_Default', 'BP1210ABS_Default', '', ( #6 ) ) ;
#271 = AXIS2_PLACEMENT_3D ( 'NONE', #33, #91, #10 ) ;
#272 = ORIENTED_EDGE ( 'NONE', *, *, #262, .F. ) ;
#273 = ORIENTED_EDGE ( 'NONE', *, *, #63, .F. ) ;
#274 = EDGE_CURVE ( 'NONE', #73, #154, #346, .T. ) ;
#275 = VECTOR ( 'NONE', #367, 39.37007874015748143 ) ;
#276 = EDGE_LOOP ( 'NONE', ( #70 ) ) ;
#277 = DIRECTION ( 'NONE',  ( -1.000000000000000000, 0.000000000000000000, 0.000000000000000000 ) ) ;
#278 = DIRECTION ( 'NONE',  ( 1.000000000000000000, 0.000000000000000000, 0.000000000000000000 ) ) ;
#279 = DIRECTION ( 'NONE',  ( -0.000000000000000000, -0.000000000000000000, -1.000000000000000000 ) ) ;
#280 = LINE ( 'NONE', #232, #18 ) ;
#281 = CARTESIAN_POINT ( 'NONE',  ( 4.125000000000000000, 5.125000000000000000, 0.000000000000000000 ) ) ;
#282 = DIRECTION ( 'NONE',  ( -0.000000000000000000, 1.000000000000000000, 0.000000000000000000 ) ) ;
#283 = FACE_OUTER_BOUND ( 'NONE', #131, .T. ) ;
#284 = EDGE_CURVE ( 'NONE', #101, #297, #260, .T. ) ;
#285 = CIRCLE ( 'NONE', #261, 0.1249999999999999029 ) ;
#286 = PERSON_AND_ORGANIZATION ( #61, #47 ) ;
#287 = FACE_OUTER_BOUND ( 'NONE', #246, .T. ) ;
#288 = CC_DESIGN_DATE_AND_TIME_ASSIGNMENT ( #85, #83, ( #182 ) ) ;
#289 = PERSON_AND_ORGANIZATION ( #61, #47 ) ;
#290 = CARTESIAN_POINT ( 'NONE',  ( 4.250000000000000000, -5.125000000000000000, 0.1150000000000000050 ) ) ;
#291 = ADVANCED_FACE ( 'NONE', ( #201 ), #317, .T. ) ;
#292 = APPROVAL_ROLE ( '' ) ;
#293 = LINE ( 'NONE', #217, #308 ) ;
#294 = DATE_AND_TIME ( #238, #142 ) ;
#295 = DIRECTION ( 'NONE',  ( 1.000000000000000000, 0.000000000000000000, -0.000000000000000000 ) ) ;
#296 = DIRECTION ( 'NONE',  ( 0.000000000000000000, 0.000000000000000000, 1.000000000000000000 ) ) ;
#297 = VERTEX_POINT ( 'NONE', #230 ) ;
#298 = ORIENTED_EDGE ( 'NONE', *, *, #51, .T. ) ;
#299 = EDGE_CURVE ( 'NONE', #239, #239, #235, .T. ) ;
#300 = ORIENTED_EDGE ( 'NONE', *, *, #164, .T. ) ;
#301 = EDGE_LOOP ( 'NONE', ( #189 ) ) ;
#302 = AXIS2_PLACEMENT_3D ( 'NONE', #256, #54, #112 ) ;
#303 = CC_DESIGN_SECURITY_CLASSIFICATION ( #213, ( #98 ) ) ;
#304 = VERTEX_POINT ( 'NONE', #314 ) ;
#305 = DIRECTION ( 'NONE',  ( 1.000000000000000000, 0.000000000000000000, 0.000000000000000000 ) ) ;
#306 = DIRECTION ( 'NONE',  ( 1.000000000000000000, 0.000000000000000000, 0.000000000000000000 ) ) ;
#307 = PRODUCT_DEFINITION_SHAPE ( 'NONE', 'NONE',  #182 ) ;
#308 = VECTOR ( 'NONE', #183, 39.37007874015748143 ) ;
#309 = CIRCLE ( 'NONE', #114, 0.1249999999999999029 ) ;
#310 = DIRECTION ( 'NONE',  ( -0.000000000000000000, -0.000000000000000000, -1.000000000000000000 ) ) ;
#311 = DIRECTION ( 'NONE',  ( 0.000000000000000000, 0.000000000000000000, 1.000000000000000000 ) ) ;
#312 = LINE ( 'NONE', #56, #116 ) ;
#313 = EDGE_LOOP ( 'NONE', ( #216 ) ) ;
#314 = CARTESIAN_POINT ( 'NONE',  ( -4.375000000000000000, -5.375000000000000888, -0.1150000000000000050 ) ) ;
#315 = CYLINDRICAL_SURFACE ( 'NONE', #172, 0.1249999999999999029 ) ;
#316 = CC_DESIGN_PERSON_AND_ORGANIZATION_ASSIGNMENT ( #211, #55, ( #270 ) ) ;
#317 = PLANE ( 'NONE',  #302 ) ;
#318 = APPLICATION_PROTOCOL_DEFINITION ( 'international standard', 'config_control_design', 1994, #94 ) ;
#319 = LINE ( 'NONE', #113, #215 ) ;
#320 = AXIS2_PLACEMENT_3D ( 'NONE', #244, #3, #266 ) ;
#321 = APPROVAL_ROLE ( '' ) ;
#322 = VERTEX_POINT ( 'NONE', #88 ) ;
#323 = PERSON_AND_ORGANIZATION_ROLE ( 'design_supplier' ) ;
#324 = FACE_OUTER_BOUND ( 'NONE', #12, .T. ) ;
#325 = DATE_AND_TIME ( #177, #44 ) ;
#326 = DIMENSIONAL_EXPONENTS ( 1.000000000000000000, 0.000000000000000000, 0.000000000000000000, 0.000000000000000000, 0.000000000000000000, 0.000000000000000000, 0.000000000000000000 ) ;
#327 = VERTEX_POINT ( 'NONE', #207 ) ;
#328 = CALENDAR_DATE ( 2023, 20, 12 ) ;
#329 = VECTOR ( 'NONE', #26, 39.37007874015748143 ) ;
#330 = FACE_OUTER_BOUND ( 'NONE', #245, .T. ) ;
#331 = VERTEX_POINT ( 'NONE', #257 ) ;
#332 = DIRECTION ( 'NONE',  ( -1.000000000000000000, -0.000000000000000000, 0.000000000000000000 ) ) ;
#333 = ORIENTED_EDGE ( 'NONE', *, *, #102, .F. ) ;
#334 = EDGE_LOOP ( 'NONE', ( #40, #41, #71, #273 ) ) ;
#335 = ORIENTED_EDGE ( 'NONE', *, *, #284, .T. ) ;
#336 = ADVANCED_FACE ( 'NONE', ( #258, #372, #99, #180, #330 ), #359, .F. ) ;
#337 = ORIENTED_EDGE ( 'NONE', *, *, #164, .F. ) ;
#338 = FACE_BOUND ( 'NONE', #97, .T. ) ;
#339 = LINE ( 'NONE', #110, #137 ) ;
#340 = CARTESIAN_POINT ( 'NONE',  ( -4.125000000000000000, -5.125000000000000000, 0.000000000000000000 ) ) ;
#341 = LOCAL_TIME ( 14, 43, 38.00000000000000000, #89 ) ;
#342 = DIRECTION ( 'NONE',  ( 1.000000000000000000, 0.000000000000000000, -0.000000000000000000 ) ) ;
#343 = EDGE_CURVE ( 'NONE', #154, #331, #151, .T. ) ;
#344 = ORIENTED_EDGE ( 'NONE', *, *, #343, .T. ) ;
#345 = DIRECTION ( 'NONE',  ( -0.000000000000000000, -0.000000000000000000, -1.000000000000000000 ) ) ;
#346 = LINE ( 'NONE', #138, #353 ) ;
#347 = AXIS2_PLACEMENT_3D ( 'NONE', #140, #200, #168 ) ;
#348 = EDGE_CURVE ( 'NONE', #176, #176, #243, .T. ) ;
#349 = CYLINDRICAL_SURFACE ( 'NONE', #126, 0.1249999999999999029 ) ;
#350 = DIRECTION ( 'NONE',  ( 1.000000000000000000, 0.000000000000000000, 0.000000000000000000 ) ) ;
#351 = APPROVAL_STATUS ( 'not_yet_approved' ) ;
#352 = PLANE ( 'NONE',  #320 ) ;
#353 = VECTOR ( 'NONE', #282, 39.37007874015748143 ) ;
#354 = PERSON_AND_ORGANIZATION_ROLE ( 'creator' ) ;
#355 = CALENDAR_DATE ( 2023, 20, 12 ) ;
#356 = ADVANCED_FACE ( 'NONE', ( #324 ), #352, .T. ) ;
#357 = ORIENTED_EDGE ( 'NONE', *, *, #35, .F. ) ;
#358 = AXIS2_PLACEMENT_3D ( 'NONE', #236, #27, #24 ) ;
#359 = PLANE ( 'NONE',  #161 ) ;
#360 = EDGE_LOOP ( 'NONE', ( #298, #127, #9, #218 ) ) ;
#361 = ORIENTED_EDGE ( 'NONE', *, *, #63, .T. ) ;
#362 = EDGE_LOOP ( 'NONE', ( #300 ) ) ;
#363 = EDGE_CURVE ( 'NONE', #304, #186, #293, .T. ) ;
#364 = CARTESIAN_POINT ( 'NONE',  ( -4.375000000000000000, -1.748382715945129988E-16, -0.1150000000000000050 ) ) ;
#365 = PLANE ( 'NONE',  #75 ) ;
#366 = EDGE_CURVE ( 'NONE', #31, #31, #65, .T. ) ;
#367 = DIRECTION ( 'NONE',  ( 0.000000000000000000, -1.000000000000000000, -0.000000000000000000 ) ) ;
#368 = CARTESIAN_POINT ( 'NONE',  ( 4.375000000000000000, 5.375000000000000888, -0.1150000000000000050 ) ) ;
#369 = ORIENTED_EDGE ( 'NONE', *, *, #57, .F. ) ;
#370 = CARTESIAN_POINT ( 'NONE',  ( -4.375000000000000000, -5.375000000000000888, 0.1150000000000000050 ) ) ;
#371 = CARTESIAN_POINT ( 'NONE',  ( 4.125000000000000000, -5.125000000000000000, 0.000000000000000000 ) ) ;
#372 = FACE_BOUND ( 'NONE', #129, .T. ) ;
#373 =( GEOMETRIC_REPRESENTATION_CONTEXT ( 3 ) GLOBAL_UNCERTAINTY_ASSIGNED_CONTEXT ( ( #169 ) ) GLOBAL_UNIT_ASSIGNED_CONTEXT ( ( #37, #62, #5 ) ) REPRESENTATION_CONTEXT ( 'NONE', 'WORKASPACE' ) );
#374 = AXIS2_PLACEMENT_3D ( 'NONE', #1, #120, #204 ) ;
#375 = CARTESIAN_POINT ( 'NONE',  ( -4.125000000000000000, 5.125000000000000000, -0.1150000000000000050 ) ) ;
#376 = APPLICATION_PROTOCOL_DEFINITION ( 'international standard', 'config_control_design', 1994, #212 ) ;
ENDSEC;
END-ISO-10303-21;
