ISO-10303-21;
HEADER;
FILE_DESCRIPTION (( 'STEP AP203' ),
    '1' );
FILE_NAME ('BP108ABS_Default.step',
    '2023-12-20T19:43:36',
    ( 'Windows User' ),
    ( 'AUTOMATION DIRECT' ),
    'SwSTEP 2.0',
    'SolidWorks 2023',
    '' );
FILE_SCHEMA (( 'CONFIG_CONTROL_DESIGN' ));
ENDSEC;

DATA;
#1 = DIRECTION ( 'NONE',  ( 0.000000000000000000, 0.000000000000000000, 1.000000000000000000 ) ) ;
#2 = CARTESIAN_POINT ( 'NONE',  ( 3.375000000000000000, 4.375000000000000000, 0.1150000000000000050 ) ) ;
#3 = LINE ( 'NONE', #117, #26 ) ;
#4 = EDGE_CURVE ( 'NONE', #368, #120, #361, .T. ) ;
#5 = MECHANICAL_CONTEXT ( 'NONE', #194, 'mechanical' ) ;
#6 = ORIENTED_EDGE ( 'NONE', *, *, #78, .T. ) ;
#7 = DIRECTION ( 'NONE',  ( 0.000000000000000000, -0.000000000000000000, -1.000000000000000000 ) ) ;
#8 = EDGE_LOOP ( 'NONE', ( #150, #204, #213, #87 ) ) ;
#9 = CARTESIAN_POINT ( 'NONE',  ( -3.125000000000000000, 4.125000000000000000, 0.000000000000000000 ) ) ;
#10 = PERSON_AND_ORGANIZATION_ROLE ( 'design_supplier' ) ;
#11 = FACE_OUTER_BOUND ( 'NONE', #362, .T. ) ;
#12 = EDGE_LOOP ( 'NONE', ( #175 ) ) ;
#13 = PERSON_AND_ORGANIZATION_ROLE ( 'design_owner' ) ;
#14 = EDGE_LOOP ( 'NONE', ( #94 ) ) ;
#15 = VECTOR ( 'NONE', #241, 39.37007874015748143 ) ;
#16 = ORIENTED_EDGE ( 'NONE', *, *, #169, .F. ) ;
#17 = CC_DESIGN_APPROVAL ( #123, ( #217 ) ) ;
#18 = ADVANCED_FACE ( 'NONE', ( #72 ), #66, .T. ) ;
#19 = VECTOR ( 'NONE', #239, 39.37007874015748143 ) ;
#20 = CARTESIAN_POINT ( 'NONE',  ( 3.250000000000000000, -4.125000000000000000, 0.1150000000000000050 ) ) ;
#21 = CIRCLE ( 'NONE', #310, 0.1249999999999999029 ) ;
#22 = VERTEX_POINT ( 'NONE', #24 ) ;
#23 = DATE_AND_TIME ( #188, #127 ) ;
#24 = CARTESIAN_POINT ( 'NONE',  ( 3.250000000000000000, 4.125000000000000000, -0.1150000000000000050 ) ) ;
#25 =( LENGTH_UNIT ( ) NAMED_UNIT ( * ) SI_UNIT ( $, .METRE. ) );
#26 = VECTOR ( 'NONE', #90, 39.37007874015748143 ) ;
#27 = PLANE ( 'NONE',  #221 ) ;
#28 = CARTESIAN_POINT ( 'NONE',  ( -3.125000000000000000, -4.125000000000000000, 0.1150000000000000050 ) ) ;
#29 = PERSON_AND_ORGANIZATION ( #130, #211 ) ;
#30 = DIRECTION ( 'NONE',  ( -1.000000000000000000, 0.000000000000000000, 0.000000000000000000 ) ) ;
#31 = DIRECTION ( 'NONE',  ( -0.000000000000000000, -0.000000000000000000, -1.000000000000000000 ) ) ;
#32 = COORDINATED_UNIVERSAL_TIME_OFFSET ( 5, 0, .BEHIND. ) ;
#33 = ORIENTED_EDGE ( 'NONE', *, *, #103, .T. ) ;
#34 = DIRECTION ( 'NONE',  ( 0.000000000000000000, 0.000000000000000000, 1.000000000000000000 ) ) ;
#35 = AXIS2_PLACEMENT_3D ( 'NONE', #317, #225, #107 ) ;
#36 = EDGE_LOOP ( 'NONE', ( #244 ) ) ;
#37 = CARTESIAN_POINT ( 'NONE',  ( 3.375000000000000000, -4.375000000000000000, 0.000000000000000000 ) ) ;
#38 = VERTEX_POINT ( 'NONE', #2 ) ;
#39 = ORIENTED_EDGE ( 'NONE', *, *, #74, .T. ) ;
#40 = CARTESIAN_POINT ( 'NONE',  ( -6.993530863780510092E-16, -4.375000000000000000, 0.1150000000000000050 ) ) ;
#41 = ADVANCED_FACE ( 'NONE', ( #365, #126, #298, #101, #11 ), #352, .T. ) ;
#42 = AXIS2_PLACEMENT_3D ( 'NONE', #320, #172, #141 ) ;
#43 = EDGE_CURVE ( 'NONE', #73, #180, #303, .T. ) ;
#44 = LOCAL_TIME ( 14, 43, 36.00000000000000000, #327 ) ;
#45 = VECTOR ( 'NONE', #77, 39.37007874015748143 ) ;
#46 = PRODUCT_RELATED_PRODUCT_CATEGORY ( 'detail', '', ( #251 ) ) ;
#47 = VERTEX_POINT ( 'NONE', #20 ) ;
#48 = VERTEX_POINT ( 'NONE', #272 ) ;
#49 = FACE_OUTER_BOUND ( 'NONE', #12, .T. ) ;
#50 = CYLINDRICAL_SURFACE ( 'NONE', #260, 0.1249999999999999029 ) ;
#51 = CC_DESIGN_PERSON_AND_ORGANIZATION_ASSIGNMENT ( #234, #118, ( #131 ) ) ;
#52 = VERTEX_POINT ( 'NONE', #132 ) ;
#53 = FACE_OUTER_BOUND ( 'NONE', #144, .T. ) ;
#54 = CARTESIAN_POINT ( 'NONE',  ( -3.125000000000000000, 4.125000000000000000, -0.1150000000000000050 ) ) ;
#55 = CARTESIAN_POINT ( 'NONE',  ( 3.375000000000000000, -4.375000000000000000, 0.000000000000000000 ) ) ;
#56 = PERSON_AND_ORGANIZATION ( #130, #211 ) ;
#57 = DIRECTION ( 'NONE',  ( 1.000000000000000000, 0.000000000000000000, -0.000000000000000000 ) ) ;
#58 = ADVANCED_FACE ( 'NONE', ( #122, #153 ), #84, .F. ) ;
#59 = FACE_OUTER_BOUND ( 'NONE', #102, .T. ) ;
#60 = CALENDAR_DATE ( 2023, 20, 12 ) ;
#61 = ORIENTED_EDGE ( 'NONE', *, *, #222, .T. ) ;
#62 = ORIENTED_EDGE ( 'NONE', *, *, #293, .T. ) ;
#63 = ORIENTED_EDGE ( 'NONE', *, *, #253, .F. ) ;
#64 = DIRECTION ( 'NONE',  ( -0.000000000000000000, -1.000000000000000000, 0.000000000000000000 ) ) ;
#65 = APPLICATION_PROTOCOL_DEFINITION ( 'international standard', 'config_control_design', 1994, #219 ) ;
#66 = PLANE ( 'NONE',  #229 ) ;
#67 = AXIS2_PLACEMENT_3D ( 'NONE', #289, #314, #286 ) ;
#68 = EDGE_LOOP ( 'NONE', ( #209 ) ) ;
#69 = LINE ( 'NONE', #114, #333 ) ;
#70 = AXIS2_PLACEMENT_3D ( 'NONE', #142, #1, #274 ) ;
#71 = DATE_AND_TIME ( #306, #44 ) ;
#72 = FACE_OUTER_BOUND ( 'NONE', #250, .T. ) ;
#73 = VERTEX_POINT ( 'NONE', #145 ) ;
#74 = EDGE_CURVE ( 'NONE', #22, #22, #105, .T. ) ;
#75 = VECTOR ( 'NONE', #170, 39.37007874015748143 ) ;
#76 = LOCAL_TIME ( 14, 43, 36.00000000000000000, #32 ) ;
#77 = DIRECTION ( 'NONE',  ( 0.000000000000000000, -1.000000000000000000, -0.000000000000000000 ) ) ;
#78 = EDGE_CURVE ( 'NONE', #345, #345, #99, .T. ) ;
#79 = CARTESIAN_POINT ( 'NONE',  ( -6.993530863780510092E-16, 4.375000000000000000, 0.1150000000000000050 ) ) ;
#80 = DIRECTION ( 'NONE',  ( 1.000000000000000000, 0.000000000000000000, 0.000000000000000000 ) ) ;
#81 = LINE ( 'NONE', #198, #75 ) ;
#82 = DATE_TIME_ROLE ( 'creation_date' ) ;
#83 = VECTOR ( 'NONE', #111, 39.37007874015748143 ) ;
#84 = CYLINDRICAL_SURFACE ( 'NONE', #283, 0.1249999999999999029 ) ;
#85 = FACE_OUTER_BOUND ( 'NONE', #8, .T. ) ;
#86 = APPROVAL_ROLE ( '' ) ;
#87 = ORIENTED_EDGE ( 'NONE', *, *, #267, .T. ) ;
#88 = DIRECTION ( 'NONE',  ( 1.000000000000000000, 0.000000000000000000, 0.000000000000000000 ) ) ;
#89 = ORIENTED_EDGE ( 'NONE', *, *, #113, .F. ) ;
#90 = DIRECTION ( 'NONE',  ( -0.000000000000000000, 1.000000000000000000, 0.000000000000000000 ) ) ;
#91 = UNCERTAINTY_MEASURE_WITH_UNIT (LENGTH_MEASURE( 1.000000000000000082E-05 ), #340, 'distance_accuracy_value', 'NONE');
#92 = SECURITY_CLASSIFICATION_LEVEL ( 'unclassified' ) ;
#93 = DIRECTION ( 'NONE',  ( 0.000000000000000000, 0.000000000000000000, 1.000000000000000000 ) ) ;
#94 = ORIENTED_EDGE ( 'NONE', *, *, #113, .T. ) ;
#95 = CARTESIAN_POINT ( 'NONE',  ( -3.375000000000000000, 4.375000000000000000, -0.1150000000000000050 ) ) ;
#96 =( NAMED_UNIT ( * ) SI_UNIT ( $, .STERADIAN. ) SOLID_ANGLE_UNIT ( ) );
#97 = ORIENTED_EDGE ( 'NONE', *, *, #74, .F. ) ;
#98 = ORIENTED_EDGE ( 'NONE', *, *, #43, .F. ) ;
#99 = CIRCLE ( 'NONE', #42, 0.1249999999999999029 ) ;
#100 = PERSON_AND_ORGANIZATION_ROLE ( 'creator' ) ;
#101 = FACE_BOUND ( 'NONE', #240, .T. ) ;
#102 = EDGE_LOOP ( 'NONE', ( #296, #343, #255, #218 ) ) ;
#103 = EDGE_CURVE ( 'NONE', #134, #134, #284, .T. ) ;
#104 = EDGE_CURVE ( 'NONE', #73, #146, #203, .T. ) ;
#105 = CIRCLE ( 'NONE', #264, 0.1249999999999999029 ) ;
#106 = CARTESIAN_POINT ( 'NONE',  ( -3.375000000000000000, 4.375000000000000000, -0.1150000000000000050 ) ) ;
#107 = DIRECTION ( 'NONE',  ( -1.000000000000000000, -1.036078646486000103E-16, 0.000000000000000000 ) ) ;
#108 = CC_DESIGN_DATE_AND_TIME_ASSIGNMENT ( #360, #319, ( #290 ) ) ;
#109 = CARTESIAN_POINT ( 'NONE',  ( 3.250000000000000000, 4.125000000000000000, 0.1150000000000000050 ) ) ;
#110 = AXIS2_PLACEMENT_3D ( 'NONE', #294, #173, #205 ) ;
#111 = DIRECTION ( 'NONE',  ( -1.000000000000000000, -0.000000000000000000, 0.000000000000000000 ) ) ;
#112 = FACE_OUTER_BOUND ( 'NONE', #304, .T. ) ;
#113 = EDGE_CURVE ( 'NONE', #133, #133, #21, .T. ) ;
#114 = CARTESIAN_POINT ( 'NONE',  ( -3.375000000000000000, -4.375000000000000000, -0.1150000000000000050 ) ) ;
#115 = APPROVAL_ROLE ( '' ) ;
#116 = CARTESIAN_POINT ( 'NONE',  ( 3.125000000000000000, 4.125000000000000000, 0.1150000000000000050 ) ) ;
#117 = CARTESIAN_POINT ( 'NONE',  ( 3.375000000000000000, 2.107288258807760089E-16, 0.1150000000000000050 ) ) ;
#118 = PERSON_AND_ORGANIZATION_ROLE ( 'creator' ) ;
#119 = EDGE_LOOP ( 'NONE', ( #166 ) ) ;
#120 = VERTEX_POINT ( 'NONE', #95 ) ;
#121 = LINE ( 'NONE', #316, #15 ) ;
#122 = FACE_OUTER_BOUND ( 'NONE', #68, .T. ) ;
#123 = APPROVAL ( #199, 'UNSPECIFIED' ) ;
#124 = EDGE_LOOP ( 'NONE', ( #39 ) ) ;
#125 = PERSON_AND_ORGANIZATION ( #130, #211 ) ;
#126 = FACE_BOUND ( 'NONE', #195, .T. ) ;
#127 = LOCAL_TIME ( 14, 43, 36.00000000000000000, #351 ) ;
#128 = ADVANCED_FACE ( 'NONE', ( #354, #112 ), #325, .F. ) ;
#129 = AXIS2_PLACEMENT_3D ( 'NONE', #54, #191, #254 ) ;
#130 = PERSON ( 'UNSPECIFIED', 'UNSPECIFIED', 'UNSPECIFIED', ('UNSPECIFIED'), ('UNSPECIFIED'), ('UNSPECIFIED') ) ;
#131 = PRODUCT_DEFINITION_FORMATION_WITH_SPECIFIED_SOURCE ( 'ANY', '', #251, .NOT_KNOWN. ) ;
#132 = CARTESIAN_POINT ( 'NONE',  ( -3.000000000000000444, 4.125000000000000000, -0.1150000000000000050 ) ) ;
#133 = VERTEX_POINT ( 'NONE', #164 ) ;
#134 = VERTEX_POINT ( 'NONE', #109 ) ;
#135 = CC_DESIGN_APPROVAL ( #177, ( #131 ) ) ;
#136 = CARTESIAN_POINT ( 'NONE',  ( -3.375000000000000000, 2.107288258807760089E-16, 0.1150000000000000050 ) ) ;
#137 = CARTESIAN_POINT ( 'NONE',  ( -6.993530863780510092E-16, 1.030571630219860048E-16, -0.1150000000000000050 ) ) ;
#138 = EDGE_CURVE ( 'NONE', #262, #180, #330, .T. ) ;
#139 = DIRECTION ( 'NONE',  ( 1.000000000000000000, 0.000000000000000000, 0.000000000000000000 ) ) ;
#140 = APPROVAL_STATUS ( 'not_yet_approved' ) ;
#141 = DIRECTION ( 'NONE',  ( 1.000000000000000000, 0.000000000000000000, 0.000000000000000000 ) ) ;
#142 = CARTESIAN_POINT ( 'NONE',  ( 3.125000000000000000, -4.125000000000000000, -0.1150000000000000050 ) ) ;
#143 = VECTOR ( 'NONE', #193, 39.37007874015748143 ) ;
#144 = EDGE_LOOP ( 'NONE', ( #338, #158, #98, #356 ) ) ;
#145 = CARTESIAN_POINT ( 'NONE',  ( -3.375000000000000000, -4.375000000000000000, 0.1150000000000000050 ) ) ;
#146 = VERTEX_POINT ( 'NONE', #176 ) ;
#147 = DIRECTION ( 'NONE',  ( -1.036078646486000103E-16, -1.000000000000000000, 0.000000000000000000 ) ) ;
#148 = CC_DESIGN_PERSON_AND_ORGANIZATION_ASSIGNMENT ( #29, #13, ( #251 ) ) ;
#149 = PERSON_AND_ORGANIZATION ( #130, #211 ) ;
#150 = ORIENTED_EDGE ( 'NONE', *, *, #313, .T. ) ;
#151 = ORIENTED_EDGE ( 'NONE', *, *, #222, .F. ) ;
#152 = APPLICATION_PROTOCOL_DEFINITION ( 'international standard', 'config_control_design', 1994, #194 ) ;
#153 = FACE_OUTER_BOUND ( 'NONE', #249, .T. ) ;
#154 = CIRCLE ( 'NONE', #67, 0.1249999999999999029 ) ;
#155 = CC_DESIGN_DATE_AND_TIME_ASSIGNMENT ( #271, #82, ( #217 ) ) ;
#156 = ADVANCED_BREP_SHAPE_REPRESENTATION ( 'BP108ABS_Default', ( #259, #308 ), #367 ) ;
#157 = PRODUCT_DEFINITION_SHAPE ( 'NONE', 'NONE',  #217 ) ;
#158 = ORIENTED_EDGE ( 'NONE', *, *, #138, .T. ) ;
#159 = VECTOR ( 'NONE', #201, 39.37007874015748143 ) ;
#160 = CC_DESIGN_APPROVAL ( #305, ( #290 ) ) ;
#161 = AXIS2_PLACEMENT_3D ( 'NONE', #208, #307, #57 ) ;
#162 = EDGE_CURVE ( 'NONE', #180, #38, #3, .T. ) ;
#163 = LENGTH_MEASURE_WITH_UNIT ( LENGTH_MEASURE( 0.02539999999999999897 ), #25 );
#164 = CARTESIAN_POINT ( 'NONE',  ( -3.000000000000000444, -4.125000000000000000, -0.1150000000000000050 ) ) ;
#165 = DIRECTION ( 'NONE',  ( 1.000000000000000000, 0.000000000000000000, 0.000000000000000000 ) ) ;
#166 = ORIENTED_EDGE ( 'NONE', *, *, #78, .F. ) ;
#167 = PLANE ( 'NONE',  #373 ) ;
#168 = CARTESIAN_POINT ( 'NONE',  ( 3.250000000000000000, -4.125000000000000000, -0.1150000000000000050 ) ) ;
#169 = EDGE_CURVE ( 'NONE', #262, #48, #121, .T. ) ;
#170 = DIRECTION ( 'NONE',  ( 1.000000000000000000, -1.036078646486000103E-16, 0.000000000000000000 ) ) ;
#171 = APPROVAL_DATE_TIME ( #71, #123 ) ;
#172 = DIRECTION ( 'NONE',  ( -0.000000000000000000, -0.000000000000000000, -1.000000000000000000 ) ) ;
#173 = DIRECTION ( 'NONE',  ( 1.000000000000000000, -7.992606701463440000E-17, 0.000000000000000000 ) ) ;
#174 = DIRECTION ( 'NONE',  ( 0.000000000000000000, 0.000000000000000000, 1.000000000000000000 ) ) ;
#175 = ORIENTED_EDGE ( 'NONE', *, *, #331, .F. ) ;
#176 = CARTESIAN_POINT ( 'NONE',  ( -3.375000000000000000, -4.375000000000000000, -0.1150000000000000050 ) ) ;
#177 = APPROVAL ( #302, 'UNSPECIFIED' ) ;
#178 = APPROVAL_PERSON_ORGANIZATION ( #56, #305, #212 ) ;
#179 = EDGE_LOOP ( 'NONE', ( #299 ) ) ;
#180 = VERTEX_POINT ( 'NONE', #359 ) ;
#181 = APPROVAL_PERSON_ORGANIZATION ( #355, #177, #115 ) ;
#182 = COORDINATED_UNIVERSAL_TIME_OFFSET ( 5, 0, .BEHIND. ) ;
#183 = EDGE_LOOP ( 'NONE', ( #276, #16, #63, #151 ) ) ;
#184 = CC_DESIGN_PERSON_AND_ORGANIZATION_ASSIGNMENT ( #295, #238, ( #290 ) ) ;
#185 = LOCAL_TIME ( 14, 43, 36.00000000000000000, #275 ) ;
#186 = ADVANCED_FACE ( 'NONE', ( #53 ), #167, .T. ) ;
#187 = AXIS2_PLACEMENT_3D ( 'NONE', #116, #235, #88 ) ;
#188 = CALENDAR_DATE ( 2023, 20, 12 ) ;
#189 = EDGE_CURVE ( 'NONE', #372, #372, #349, .T. ) ;
#190 = ORIENTED_EDGE ( 'NONE', *, *, #104, .F. ) ;
#191 = DIRECTION ( 'NONE',  ( 0.000000000000000000, 0.000000000000000000, 1.000000000000000000 ) ) ;
#192 = ORIENTED_EDGE ( 'NONE', *, *, #287, .T. ) ;
#193 = DIRECTION ( 'NONE',  ( -1.000000000000000000, -1.036078646486000103E-16, 0.000000000000000000 ) ) ;
#194 = APPLICATION_CONTEXT ( 'configuration controlled 3d designs of mechanical parts and assemblies' ) ;
#195 = EDGE_LOOP ( 'NONE', ( #6 ) ) ;
#196 = DIRECTION ( 'NONE',  ( 0.000000000000000000, 0.000000000000000000, 1.000000000000000000 ) ) ;
#197 = DIRECTION ( 'NONE',  ( 0.000000000000000000, 0.000000000000000000, 1.000000000000000000 ) ) ;
#198 = CARTESIAN_POINT ( 'NONE',  ( 3.375000000000000000, -4.375000000000000000, -0.1150000000000000050 ) ) ;
#199 = APPROVAL_STATUS ( 'not_yet_approved' ) ;
#200 = DIRECTION ( 'NONE',  ( 0.000000000000000000, 0.000000000000000000, 1.000000000000000000 ) ) ;
#201 = DIRECTION ( 'NONE',  ( -0.000000000000000000, 0.000000000000000000, 1.000000000000000000 ) ) ;
#202 = DIRECTION ( 'NONE',  ( 0.000000000000000000, 0.000000000000000000, 1.000000000000000000 ) ) ;
#203 = LINE ( 'NONE', #323, #363 ) ;
#204 = ORIENTED_EDGE ( 'NONE', *, *, #4, .F. ) ;
#205 = DIRECTION ( 'NONE',  ( 7.992606701463440000E-17, 1.000000000000000000, 0.000000000000000000 ) ) ;
#206 = APPROVAL_DATE_TIME ( #242, #177 ) ;
#207 = ORIENTED_EDGE ( 'NONE', *, *, #337, .F. ) ;
#208 = CARTESIAN_POINT ( 'NONE',  ( -6.993530863780510092E-16, 2.107288258807760089E-16, 0.1150000000000000050 ) ) ;
#209 = ORIENTED_EDGE ( 'NONE', *, *, #258, .F. ) ;
#210 = DIRECTION ( 'NONE',  ( 1.000000000000000000, -1.036078646486000103E-16, 0.000000000000000000 ) ) ;
#211 = ORGANIZATION ( 'UNSPECIFIED', 'UNSPECIFIED', '' ) ;
#212 = APPROVAL_ROLE ( '' ) ;
#213 = ORIENTED_EDGE ( 'NONE', *, *, #293, .F. ) ;
#214 = AXIS2_PLACEMENT_3D ( 'NONE', #28, #31, #139 ) ;
#215 = CALENDAR_DATE ( 2023, 20, 12 ) ;
#216 = CARTESIAN_POINT ( 'NONE',  ( 3.125000000000000000, 4.125000000000000000, -0.1150000000000000050 ) ) ;
#217 = PRODUCT_DEFINITION ( 'UNKNOWN', '', #131, #268 ) ;
#218 = ORIENTED_EDGE ( 'NONE', *, *, #138, .F. ) ;
#219 = APPLICATION_CONTEXT ( 'configuration controlled 3d designs of mechanical parts and assemblies' ) ;
#220 = ADVANCED_FACE ( 'NONE', ( #59 ), #237, .T. ) ;
#221 = AXIS2_PLACEMENT_3D ( 'NONE', #137, #232, #346 ) ;
#222 = EDGE_CURVE ( 'NONE', #120, #146, #69, .T. ) ;
#223 = VERTEX_POINT ( 'NONE', #371 ) ;
#224 = APPROVAL_DATE_TIME ( #23, #305 ) ;
#225 = DIRECTION ( 'NONE',  ( -1.036078646486000103E-16, 1.000000000000000000, 0.000000000000000000 ) ) ;
#226 = CIRCLE ( 'NONE', #214, 0.1249999999999999029 ) ;
#227 = ORIENTED_EDGE ( 'NONE', *, *, #162, .T. ) ;
#228 = LINE ( 'NONE', #79, #83 ) ;
#229 = AXIS2_PLACEMENT_3D ( 'NONE', #334, #30, #174 ) ;
#230 = SHAPE_DEFINITION_REPRESENTATION ( #157, #156 ) ;
#231 = FACE_OUTER_BOUND ( 'NONE', #353, .T. ) ;
#232 = DIRECTION ( 'NONE',  ( 0.000000000000000000, 0.000000000000000000, 1.000000000000000000 ) ) ;
#233 = CARTESIAN_POINT ( 'NONE',  ( 3.375000000000000000, -4.375000000000000000, -0.1150000000000000050 ) ) ;
#234 = PERSON_AND_ORGANIZATION ( #130, #211 ) ;
#235 = DIRECTION ( 'NONE',  ( -0.000000000000000000, -0.000000000000000000, -1.000000000000000000 ) ) ;
#236 = ORIENTED_EDGE ( 'NONE', *, *, #103, .F. ) ;
#237 = PLANE ( 'NONE',  #110 ) ;
#238 = PERSON_AND_ORGANIZATION_ROLE ( 'classification_officer' ) ;
#239 = DIRECTION ( 'NONE',  ( -0.000000000000000000, -0.000000000000000000, -1.000000000000000000 ) ) ;
#240 = EDGE_LOOP ( 'NONE', ( #324 ) ) ;
#241 = DIRECTION ( 'NONE',  ( 7.992606701463440000E-17, 1.000000000000000000, 0.000000000000000000 ) ) ;
#242 = DATE_AND_TIME ( #215, #76 ) ;
#243 = CARTESIAN_POINT ( 'NONE',  ( -3.375000000000000000, 4.375000000000000000, 0.000000000000000000 ) ) ;
#244 = ORIENTED_EDGE ( 'NONE', *, *, #258, .T. ) ;
#245 = CIRCLE ( 'NONE', #129, 0.1249999999999999029 ) ;
#246 = CALENDAR_DATE ( 2023, 20, 12 ) ;
#247 = DIRECTION ( 'NONE',  ( 1.000000000000000000, 0.000000000000000000, 0.000000000000000000 ) ) ;
#248 = ADVANCED_FACE ( 'NONE', ( #265, #300, #376, #291, #321 ), #27, .F. ) ;
#249 = EDGE_LOOP ( 'NONE', ( #89 ) ) ;
#250 = EDGE_LOOP ( 'NONE', ( #61, #190, #358, #329 ) ) ;
#251 = PRODUCT ( 'BP108ABS_Default', 'BP108ABS_Default', '', ( #5 ) ) ;
#252 = APPROVAL_PERSON_ORGANIZATION ( #149, #123, #86 ) ;
#253 = EDGE_CURVE ( 'NONE', #146, #262, #81, .T. ) ;
#254 = DIRECTION ( 'NONE',  ( 1.000000000000000000, 0.000000000000000000, 0.000000000000000000 ) ) ;
#255 = ORIENTED_EDGE ( 'NONE', *, *, #162, .F. ) ;
#256 = DIRECTION ( 'NONE',  ( 0.000000000000000000, 0.000000000000000000, 1.000000000000000000 ) ) ;
#257 = CARTESIAN_POINT ( 'NONE',  ( 3.125000000000000000, 4.125000000000000000, 0.000000000000000000 ) ) ;
#258 = EDGE_CURVE ( 'NONE', #223, #223, #226, .T. ) ;
#259 = MANIFOLD_SOLID_BREP ( 'Solid1', #339 ) ;
#260 = AXIS2_PLACEMENT_3D ( 'NONE', #257, #196, #311 ) ;
#261 = CC_DESIGN_SECURITY_CLASSIFICATION ( #290, ( #131 ) ) ;
#262 = VERTEX_POINT ( 'NONE', #233 ) ;
#263 = FACE_OUTER_BOUND ( 'NONE', #273, .T. ) ;
#264 = AXIS2_PLACEMENT_3D ( 'NONE', #216, #200, #269 ) ;
#265 = FACE_BOUND ( 'NONE', #14, .T. ) ;
#266 = LINE ( 'NONE', #350, #280 ) ;
#267 = EDGE_CURVE ( 'NONE', #38, #48, #266, .T. ) ;
#268 = DESIGN_CONTEXT ( 'detailed design', #219, 'design' ) ;
#269 = DIRECTION ( 'NONE',  ( 1.000000000000000000, 0.000000000000000000, 0.000000000000000000 ) ) ;
#270 = DIRECTION ( 'NONE',  ( -0.000000000000000000, -0.000000000000000000, -1.000000000000000000 ) ) ;
#271 = DATE_AND_TIME ( #246, #185 ) ;
#272 = CARTESIAN_POINT ( 'NONE',  ( 3.375000000000000000, 4.375000000000000000, -0.1150000000000000050 ) ) ;
#273 = EDGE_LOOP ( 'NONE', ( #236 ) ) ;
#274 = DIRECTION ( 'NONE',  ( 1.000000000000000000, 0.000000000000000000, 0.000000000000000000 ) ) ;
#275 = COORDINATED_UNIVERSAL_TIME_OFFSET ( 5, 0, .BEHIND. ) ;
#276 = ORIENTED_EDGE ( 'NONE', *, *, #313, .F. ) ;
#277 = ORIENTED_EDGE ( 'NONE', *, *, #43, .T. ) ;
#278 =( NAMED_UNIT ( * ) PLANE_ANGLE_UNIT ( ) SI_UNIT ( $, .RADIAN. ) );
#279 = CARTESIAN_POINT ( 'NONE',  ( -3.125000000000000000, -4.125000000000000000, 0.000000000000000000 ) ) ;
#280 = VECTOR ( 'NONE', #270, 39.37007874015748143 ) ;
#281 = CC_DESIGN_PERSON_AND_ORGANIZATION_ASSIGNMENT ( #125, #100, ( #217 ) ) ;
#282 = EDGE_LOOP ( 'NONE', ( #328 ) ) ;
#283 = AXIS2_PLACEMENT_3D ( 'NONE', #279, #34, #247 ) ;
#284 = CIRCLE ( 'NONE', #187, 0.1249999999999999029 ) ;
#285 = ADVANCED_FACE ( 'NONE', ( #85 ), #297, .T. ) ;
#286 = DIRECTION ( 'NONE',  ( 1.000000000000000000, 0.000000000000000000, 0.000000000000000000 ) ) ;
#287 = EDGE_CURVE ( 'NONE', #368, #73, #341, .T. ) ;
#288 = LINE ( 'NONE', #106, #143 ) ;
#289 = CARTESIAN_POINT ( 'NONE',  ( 3.125000000000000000, -4.125000000000000000, 0.1150000000000000050 ) ) ;
#290 = SECURITY_CLASSIFICATION ( '', '', #92 ) ;
#291 = FACE_BOUND ( 'NONE', #179, .T. ) ;
#292 = CARTESIAN_POINT ( 'NONE',  ( -3.375000000000000000, 4.375000000000000000, 0.1150000000000000050 ) ) ;
#293 = EDGE_CURVE ( 'NONE', #38, #368, #228, .T. ) ;
#294 = CARTESIAN_POINT ( 'NONE',  ( 3.375000000000000000, 4.375000000000000000, 0.000000000000000000 ) ) ;
#295 = PERSON_AND_ORGANIZATION ( #130, #211 ) ;
#296 = ORIENTED_EDGE ( 'NONE', *, *, #169, .T. ) ;
#297 = PLANE ( 'NONE',  #35 ) ;
#298 = FACE_BOUND ( 'NONE', #336, .T. ) ;
#299 = ORIENTED_EDGE ( 'NONE', *, *, #189, .T. ) ;
#300 = FACE_BOUND ( 'NONE', #309, .T. ) ;
#301 = VECTOR ( 'NONE', #348, 39.37007874015748143 ) ;
#302 = APPROVAL_STATUS ( 'not_yet_approved' ) ;
#303 = LINE ( 'NONE', #40, #301 ) ;
#304 = EDGE_LOOP ( 'NONE', ( #207 ) ) ;
#305 = APPROVAL ( #140, 'UNSPECIFIED' ) ;
#306 = CALENDAR_DATE ( 2023, 20, 12 ) ;
#307 = DIRECTION ( 'NONE',  ( 0.000000000000000000, 0.000000000000000000, 1.000000000000000000 ) ) ;
#308 = AXIS2_PLACEMENT_3D ( 'NONE', #364, #202, #335 ) ;
#309 = EDGE_LOOP ( 'NONE', ( #366 ) ) ;
#310 = AXIS2_PLACEMENT_3D ( 'NONE', #357, #93, #318 ) ;
#311 = DIRECTION ( 'NONE',  ( 1.000000000000000000, 0.000000000000000000, 0.000000000000000000 ) ) ;
#312 = CYLINDRICAL_SURFACE ( 'NONE', #332, 0.1249999999999999029 ) ;
#313 = EDGE_CURVE ( 'NONE', #48, #120, #288, .T. ) ;
#314 = DIRECTION ( 'NONE',  ( -0.000000000000000000, -0.000000000000000000, -1.000000000000000000 ) ) ;
#315 = CARTESIAN_POINT ( 'NONE',  ( 3.125000000000000000, -4.125000000000000000, 0.000000000000000000 ) ) ;
#316 = CARTESIAN_POINT ( 'NONE',  ( 3.375000000000000000, 4.375000000000000000, -0.1150000000000000050 ) ) ;
#317 = CARTESIAN_POINT ( 'NONE',  ( -3.375000000000000000, 4.375000000000000000, 0.000000000000000000 ) ) ;
#318 = DIRECTION ( 'NONE',  ( 1.000000000000000000, 0.000000000000000000, 0.000000000000000000 ) ) ;
#319 = DATE_TIME_ROLE ( 'classification_date' ) ;
#320 = CARTESIAN_POINT ( 'NONE',  ( -3.125000000000000000, 4.125000000000000000, 0.1150000000000000050 ) ) ;
#321 = FACE_OUTER_BOUND ( 'NONE', #183, .T. ) ;
#322 = PERSON_AND_ORGANIZATION ( #130, #211 ) ;
#323 = CARTESIAN_POINT ( 'NONE',  ( -3.375000000000000000, -4.375000000000000000, 0.000000000000000000 ) ) ;
#324 = ORIENTED_EDGE ( 'NONE', *, *, #331, .T. ) ;
#325 = CYLINDRICAL_SURFACE ( 'NONE', #374, 0.1249999999999999029 ) ;
#326 = DIMENSIONAL_EXPONENTS ( 1.000000000000000000, 0.000000000000000000, 0.000000000000000000, 0.000000000000000000, 0.000000000000000000, 0.000000000000000000, 0.000000000000000000 ) ;
#327 = COORDINATED_UNIVERSAL_TIME_OFFSET ( 5, 0, .BEHIND. ) ;
#328 = ORIENTED_EDGE ( 'NONE', *, *, #189, .F. ) ;
#329 = ORIENTED_EDGE ( 'NONE', *, *, #4, .T. ) ;
#330 = LINE ( 'NONE', #37, #159 ) ;
#331 = EDGE_CURVE ( 'NONE', #47, #47, #154, .T. ) ;
#332 = AXIS2_PLACEMENT_3D ( 'NONE', #315, #256, #165 ) ;
#333 = VECTOR ( 'NONE', #64, 39.37007874015748143 ) ;
#334 = CARTESIAN_POINT ( 'NONE',  ( -3.375000000000000000, -4.375000000000000000, 0.000000000000000000 ) ) ;
#335 = DIRECTION ( 'NONE',  ( 1.000000000000000000, 0.000000000000000000, 0.000000000000000000 ) ) ;
#336 = EDGE_LOOP ( 'NONE', ( #33 ) ) ;
#337 = EDGE_CURVE ( 'NONE', #52, #52, #245, .T. ) ;
#338 = ORIENTED_EDGE ( 'NONE', *, *, #253, .T. ) ;
#339 = CLOSED_SHELL ( 'NONE', ( #41, #58, #128, #347, #375, #186, #18, #285, #220, #248 ) ) ;
#340 =( CONVERSION_BASED_UNIT ( 'INCH', #163 ) LENGTH_UNIT ( ) NAMED_UNIT ( #326 ) );
#341 = LINE ( 'NONE', #136, #45 ) ;
#342 = LOCAL_TIME ( 14, 43, 36.00000000000000000, #182 ) ;
#343 = ORIENTED_EDGE ( 'NONE', *, *, #267, .F. ) ;
#344 = FACE_OUTER_BOUND ( 'NONE', #282, .T. ) ;
#345 = VERTEX_POINT ( 'NONE', #370 ) ;
#346 = DIRECTION ( 'NONE',  ( 1.000000000000000000, 0.000000000000000000, -0.000000000000000000 ) ) ;
#347 = ADVANCED_FACE ( 'NONE', ( #263, #231 ), #50, .F. ) ;
#348 = DIRECTION ( 'NONE',  ( 1.000000000000000000, 0.000000000000000000, -0.000000000000000000 ) ) ;
#349 = CIRCLE ( 'NONE', #70, 0.1249999999999999029 ) ;
#350 = CARTESIAN_POINT ( 'NONE',  ( 3.375000000000000000, 4.375000000000000888, 0.000000000000000000 ) ) ;
#351 = COORDINATED_UNIVERSAL_TIME_OFFSET ( 5, 0, .BEHIND. ) ;
#352 = PLANE ( 'NONE',  #161 ) ;
#353 = EDGE_LOOP ( 'NONE', ( #97 ) ) ;
#354 = FACE_OUTER_BOUND ( 'NONE', #119, .T. ) ;
#355 = PERSON_AND_ORGANIZATION ( #130, #211 ) ;
#356 = ORIENTED_EDGE ( 'NONE', *, *, #104, .T. ) ;
#357 = CARTESIAN_POINT ( 'NONE',  ( -3.125000000000000000, -4.125000000000000000, -0.1150000000000000050 ) ) ;
#358 = ORIENTED_EDGE ( 'NONE', *, *, #287, .F. ) ;
#359 = CARTESIAN_POINT ( 'NONE',  ( 3.375000000000000000, -4.375000000000000000, 0.1150000000000000050 ) ) ;
#360 = DATE_AND_TIME ( #60, #342 ) ;
#361 = LINE ( 'NONE', #243, #19 ) ;
#362 = EDGE_LOOP ( 'NONE', ( #192, #277, #227, #62 ) ) ;
#363 = VECTOR ( 'NONE', #7, 39.37007874015748143 ) ;
#364 = CARTESIAN_POINT ( 'NONE',  ( 0.000000000000000000, 0.000000000000000000, 0.000000000000000000 ) ) ;
#365 = FACE_BOUND ( 'NONE', #36, .T. ) ;
#366 = ORIENTED_EDGE ( 'NONE', *, *, #337, .T. ) ;
#367 =( GEOMETRIC_REPRESENTATION_CONTEXT ( 3 ) GLOBAL_UNCERTAINTY_ASSIGNED_CONTEXT ( ( #91 ) ) GLOBAL_UNIT_ASSIGNED_CONTEXT ( ( #340, #278, #96 ) ) REPRESENTATION_CONTEXT ( 'NONE', 'WORKASPACE' ) );
#368 = VERTEX_POINT ( 'NONE', #292 ) ;
#369 = CC_DESIGN_PERSON_AND_ORGANIZATION_ASSIGNMENT ( #322, #10, ( #131 ) ) ;
#370 = CARTESIAN_POINT ( 'NONE',  ( -3.000000000000000444, 4.125000000000000000, 0.1150000000000000050 ) ) ;
#371 = CARTESIAN_POINT ( 'NONE',  ( -3.000000000000000444, -4.125000000000000000, 0.1150000000000000050 ) ) ;
#372 = VERTEX_POINT ( 'NONE', #168 ) ;
#373 = AXIS2_PLACEMENT_3D ( 'NONE', #55, #147, #210 ) ;
#374 = AXIS2_PLACEMENT_3D ( 'NONE', #9, #197, #80 ) ;
#375 = ADVANCED_FACE ( 'NONE', ( #49, #344 ), #312, .F. ) ;
#376 = FACE_BOUND ( 'NONE', #124, .T. ) ;
ENDSEC;
END-ISO-10303-21;
