ISO-10303-21;
HEADER;
FILE_DESCRIPTION (( 'STEP AP203' ),
    '1' );
FILE_NAME ('BP1010ABS_Default.step',
    '2023-12-20T19:43:34',
    ( 'Windows User' ),
    ( 'AUTOMATION DIRECT' ),
    'SwSTEP 2.0',
    'SolidWorks 2023',
    '' );
FILE_SCHEMA (( 'CONFIG_CONTROL_DESIGN' ));
ENDSEC;

DATA;
#1 = CYLINDRICAL_SURFACE ( 'NONE', #115, 0.1249999999999999029 ) ;
#2 = EDGE_CURVE ( 'NONE', #180, #59, #148, .T. ) ;
#3 = APPROVAL_STATUS ( 'not_yet_approved' ) ;
#4 = DIRECTION ( 'NONE',  ( 0.000000000000000000, -1.000000000000000000, -0.000000000000000000 ) ) ;
#5 = DIRECTION ( 'NONE',  ( 1.000000000000000000, 2.397782010439029904E-16, -0.000000000000000000 ) ) ;
#6 = EDGE_CURVE ( 'NONE', #113, #373, #29, .T. ) ;
#7 = APPROVAL_DATE_TIME ( #150, #335 ) ;
#8 = APPROVAL_PERSON_ORGANIZATION ( #96, #335, #329 ) ;
#9 = CARTESIAN_POINT ( 'NONE',  ( -4.000000000000000000, 4.125000000000000000, 0.1150000000000000050 ) ) ;
#10 =( CONVERSION_BASED_UNIT ( 'INCH', #214 ) LENGTH_UNIT ( ) NAMED_UNIT ( #112 ) );
#11 = ADVANCED_FACE ( 'NONE', ( #144, #122 ), #1, .F. ) ;
#12 = CARTESIAN_POINT ( 'NONE',  ( 4.250000000000000000, -4.125000000000000000, 0.1150000000000000050 ) ) ;
#13 = CARTESIAN_POINT ( 'NONE',  ( -4.000000000000000000, -4.125000000000000000, 0.1150000000000000050 ) ) ;
#14 = DIRECTION ( 'NONE',  ( 1.000000000000000000, 0.000000000000000000, 0.000000000000000000 ) ) ;
#15 = DIRECTION ( 'NONE',  ( 1.000000000000000000, 0.000000000000000000, 0.000000000000000000 ) ) ;
#16 = PERSON_AND_ORGANIZATION ( #84, #114 ) ;
#17 = CLOSED_SHELL ( 'NONE', ( #255, #11, #207, #72, #315, #330, #62, #343, #362, #242 ) ) ;
#18 = LINE ( 'NONE', #363, #85 ) ;
#19 = FACE_OUTER_BOUND ( 'NONE', #89, .T. ) ;
#20 = ADVANCED_BREP_SHAPE_REPRESENTATION ( 'BP1010ABS_Default', ( #263, #142 ), #301 ) ;
#21 = DIRECTION ( 'NONE',  ( 1.000000000000000000, 0.000000000000000000, -0.000000000000000000 ) ) ;
#22 = PLANE ( 'NONE',  #247 ) ;
#23 = CIRCLE ( 'NONE', #297, 0.1249999999999999029 ) ;
#24 = CC_DESIGN_DATE_AND_TIME_ASSIGNMENT ( #237, #266, ( #81 ) ) ;
#25 = ORIENTED_EDGE ( 'NONE', *, *, #260, .T. ) ;
#26 = EDGE_LOOP ( 'NONE', ( #94 ) ) ;
#27 = LOCAL_TIME ( 14, 43, 34.00000000000000000, #299 ) ;
#28 = EDGE_LOOP ( 'NONE', ( #285 ) ) ;
#29 = LINE ( 'NONE', #124, #147 ) ;
#30 = EDGE_LOOP ( 'NONE', ( #205 ) ) ;
#31 = AXIS2_PLACEMENT_3D ( 'NONE', #289, #143, #261 ) ;
#32 = SHAPE_DEFINITION_REPRESENTATION ( #68, #20 ) ;
#33 = LINE ( 'NONE', #265, #209 ) ;
#34 = EDGE_CURVE ( 'NONE', #352, #113, #326, .T. ) ;
#35 = PERSON_AND_ORGANIZATION ( #84, #114 ) ;
#36 = CALENDAR_DATE ( 2023, 20, 12 ) ;
#37 = CARTESIAN_POINT ( 'NONE',  ( 4.375000000000000000, 4.375000000000002665, 0.000000000000000000 ) ) ;
#38 = APPLICATION_PROTOCOL_DEFINITION ( 'international standard', 'config_control_design', 1994, #121 ) ;
#39 = CIRCLE ( 'NONE', #254, 0.1249999999999999029 ) ;
#40 = CARTESIAN_POINT ( 'NONE',  ( -4.375000000000000000, -4.375000000000000000, 0.000000000000000000 ) ) ;
#41 = APPLICATION_PROTOCOL_DEFINITION ( 'international standard', 'config_control_design', 1994, #197 ) ;
#42 = DIRECTION ( 'NONE',  ( -0.000000000000000000, -0.000000000000000000, -1.000000000000000000 ) ) ;
#43 = CARTESIAN_POINT ( 'NONE',  ( 4.375000000000000000, 4.375000000000000000, 0.1150000000000000050 ) ) ;
#44 = PLANE ( 'NONE',  #181 ) ;
#45 = CARTESIAN_POINT ( 'NONE',  ( 4.125000000000000000, 4.125000000000000000, 0.000000000000000000 ) ) ;
#46 = APPROVAL_ROLE ( '' ) ;
#47 = LOCAL_TIME ( 14, 43, 34.00000000000000000, #157 ) ;
#48 = CC_DESIGN_PERSON_AND_ORGANIZATION_ASSIGNMENT ( #292, #298, ( #257 ) ) ;
#49 = CARTESIAN_POINT ( 'NONE',  ( 4.375000000000000000, -4.375000000000000000, 0.000000000000000000 ) ) ;
#50 = DIRECTION ( 'NONE',  ( -0.000000000000000000, 1.000000000000000000, 0.000000000000000000 ) ) ;
#51 = DIRECTION ( 'NONE',  ( 0.000000000000000000, 0.000000000000000000, 1.000000000000000000 ) ) ;
#52 = DIRECTION ( 'NONE',  ( 1.000000000000000000, 0.000000000000000000, -0.000000000000000000 ) ) ;
#53 = EDGE_CURVE ( 'NONE', #79, #79, #95, .T. ) ;
#54 = ORIENTED_EDGE ( 'NONE', *, *, #6, .F. ) ;
#55 = EDGE_LOOP ( 'NONE', ( #174 ) ) ;
#56 = VERTEX_POINT ( 'NONE', #296 ) ;
#57 = EDGE_CURVE ( 'NONE', #59, #56, #33, .T. ) ;
#58 = LOCAL_TIME ( 14, 43, 34.00000000000000000, #149 ) ;
#59 = VERTEX_POINT ( 'NONE', #236 ) ;
#60 = CARTESIAN_POINT ( 'NONE',  ( -4.125000000000000000, -4.125000000000000000, 0.000000000000000000 ) ) ;
#61 = ORIENTED_EDGE ( 'NONE', *, *, #293, .T. ) ;
#62 = ADVANCED_FACE ( 'NONE', ( #355 ), #66, .T. ) ;
#63 = DIRECTION ( 'NONE',  ( 1.000000000000000000, 0.000000000000000000, 0.000000000000000000 ) ) ;
#64 = CIRCLE ( 'NONE', #365, 0.1249999999999999029 ) ;
#65 = CALENDAR_DATE ( 2023, 20, 12 ) ;
#66 = PLANE ( 'NONE',  #31 ) ;
#67 = AXIS2_PLACEMENT_3D ( 'NONE', #217, #273, #108 ) ;
#68 = PRODUCT_DEFINITION_SHAPE ( 'NONE', 'NONE',  #183 ) ;
#69 = PERSON_AND_ORGANIZATION ( #84, #114 ) ;
#70 = ORIENTED_EDGE ( 'NONE', *, *, #346, .T. ) ;
#71 = DIRECTION ( 'NONE',  ( 1.000000000000000000, 0.000000000000000000, 0.000000000000000000 ) ) ;
#72 = ADVANCED_FACE ( 'NONE', ( #80, #367 ), #109, .F. ) ;
#73 = PERSON_AND_ORGANIZATION ( #84, #114 ) ;
#74 = DIRECTION ( 'NONE',  ( 0.000000000000000000, 0.000000000000000000, 1.000000000000000000 ) ) ;
#75 = VERTEX_POINT ( 'NONE', #272 ) ;
#76 = PLANE ( 'NONE',  #67 ) ;
#77 = DIRECTION ( 'NONE',  ( 1.000000000000000000, 0.000000000000000000, 0.000000000000000000 ) ) ;
#78 = PERSON_AND_ORGANIZATION ( #84, #114 ) ;
#79 = VERTEX_POINT ( 'NONE', #9 ) ;
#80 = FACE_OUTER_BOUND ( 'NONE', #235, .T. ) ;
#81 = SECURITY_CLASSIFICATION ( '', '', #356 ) ;
#82 = DIRECTION ( 'NONE',  ( -0.000000000000000000, -0.000000000000000000, -1.000000000000000000 ) ) ;
#83 = FACE_BOUND ( 'NONE', #317, .T. ) ;
#84 = PERSON ( 'UNSPECIFIED', 'UNSPECIFIED', 'UNSPECIFIED', ('UNSPECIFIED'), ('UNSPECIFIED'), ('UNSPECIFIED') ) ;
#85 = VECTOR ( 'NONE', #249, 39.37007874015748143 ) ;
#86 = ORIENTED_EDGE ( 'NONE', *, *, #234, .F. ) ;
#87 = ORIENTED_EDGE ( 'NONE', *, *, #287, .T. ) ;
#88 = ORIENTED_EDGE ( 'NONE', *, *, #106, .F. ) ;
#89 = EDGE_LOOP ( 'NONE', ( #200 ) ) ;
#90 = ORIENTED_EDGE ( 'NONE', *, *, #346, .F. ) ;
#91 = CC_DESIGN_PERSON_AND_ORGANIZATION_ASSIGNMENT ( #16, #303, ( #183 ) ) ;
#92 = EDGE_LOOP ( 'NONE', ( #349, #233, #230, #208 ) ) ;
#93 = ORIENTED_EDGE ( 'NONE', *, *, #316, .F. ) ;
#94 = ORIENTED_EDGE ( 'NONE', *, *, #260, .F. ) ;
#95 = CIRCLE ( 'NONE', #133, 0.1249999999999999029 ) ;
#96 = PERSON_AND_ORGANIZATION ( #84, #114 ) ;
#97 = ORIENTED_EDGE ( 'NONE', *, *, #2, .T. ) ;
#98 = VECTOR ( 'NONE', #105, 39.37007874015748143 ) ;
#99 = MECHANICAL_CONTEXT ( 'NONE', #121, 'mechanical' ) ;
#100 = CARTESIAN_POINT ( 'NONE',  ( 4.125000000000000000, -4.125000000000000000, -0.1150000000000000050 ) ) ;
#101 = CARTESIAN_POINT ( 'NONE',  ( -4.375000000000000000, -4.375000000000000000, 0.000000000000000000 ) ) ;
#102 = COORDINATED_UNIVERSAL_TIME_OFFSET ( 5, 0, .BEHIND. ) ;
#103 = EDGE_LOOP ( 'NONE', ( #61, #117, #206, #232 ) ) ;
#104 = PLANE ( 'NONE',  #210 ) ;
#105 = DIRECTION ( 'NONE',  ( -0.000000000000000000, -1.000000000000000000, -0.000000000000000000 ) ) ;
#106 = EDGE_CURVE ( 'NONE', #347, #352, #341, .T. ) ;
#107 = CARTESIAN_POINT ( 'NONE',  ( 0.000000000000000000, 0.000000000000000000, 0.000000000000000000 ) ) ;
#108 = DIRECTION ( 'NONE',  ( 0.000000000000000000, 0.000000000000000000, -1.000000000000000000 ) ) ;
#109 = CYLINDRICAL_SURFACE ( 'NONE', #350, 0.1249999999999999029 ) ;
#110 = FACE_BOUND ( 'NONE', #26, .T. ) ;
#111 = DIRECTION ( 'NONE',  ( -0.000000000000000000, -0.000000000000000000, -1.000000000000000000 ) ) ;
#112 = DIMENSIONAL_EXPONENTS ( 1.000000000000000000, 0.000000000000000000, 0.000000000000000000, 0.000000000000000000, 0.000000000000000000, 0.000000000000000000, 0.000000000000000000 ) ;
#113 = VERTEX_POINT ( 'NONE', #253 ) ;
#114 = ORGANIZATION ( 'UNSPECIFIED', 'UNSPECIFIED', '' ) ;
#115 = AXIS2_PLACEMENT_3D ( 'NONE', #60, #231, #179 ) ;
#116 = APPROVAL ( #308, 'UNSPECIFIED' ) ;
#117 = ORIENTED_EDGE ( 'NONE', *, *, #269, .F. ) ;
#118 = DIRECTION ( 'NONE',  ( -1.000000000000000000, -0.000000000000000000, 0.000000000000000000 ) ) ;
#119 = ORIENTED_EDGE ( 'NONE', *, *, #57, .F. ) ;
#120 = DESIGN_CONTEXT ( 'detailed design', #197, 'design' ) ;
#121 = APPLICATION_CONTEXT ( 'configuration controlled 3d designs of mechanical parts and assemblies' ) ;
#122 = FACE_OUTER_BOUND ( 'NONE', #375, .T. ) ;
#123 = EDGE_LOOP ( 'NONE', ( #155, #348, #146, #262 ) ) ;
#124 = CARTESIAN_POINT ( 'NONE',  ( -4.375000000000000000, 3.178877665354779836E-17, -0.1150000000000000050 ) ) ;
#125 = UNCERTAINTY_MEASURE_WITH_UNIT (LENGTH_MEASURE( 1.000000000000000082E-05 ), #10, 'distance_accuracy_value', 'NONE');
#126 = CIRCLE ( 'NONE', #186, 0.1249999999999999029 ) ;
#127 = PRODUCT_RELATED_PRODUCT_CATEGORY ( 'detail', '', ( #295 ) ) ;
#128 = FACE_OUTER_BOUND ( 'NONE', #103, .T. ) ;
#129 = PERSON_AND_ORGANIZATION ( #84, #114 ) ;
#130 = VERTEX_POINT ( 'NONE', #243 ) ;
#131 = DIRECTION ( 'NONE',  ( 0.000000000000000000, 0.000000000000000000, -1.000000000000000000 ) ) ;
#132 = FACE_BOUND ( 'NONE', #28, .T. ) ;
#133 = AXIS2_PLACEMENT_3D ( 'NONE', #173, #325, #63 ) ;
#134 = DATE_AND_TIME ( #190, #47 ) ;
#135 = LINE ( 'NONE', #49, #312 ) ;
#136 = DIRECTION ( 'NONE',  ( 1.000000000000000000, 0.000000000000000000, 0.000000000000000000 ) ) ;
#137 = FACE_OUTER_BOUND ( 'NONE', #172, .T. ) ;
#138 = CARTESIAN_POINT ( 'NONE',  ( -4.375000000000000000, -4.375000000000000000, 0.1150000000000000050 ) ) ;
#139 = ORIENTED_EDGE ( 'NONE', *, *, #140, .F. ) ;
#140 = EDGE_CURVE ( 'NONE', #360, #360, #126, .T. ) ;
#141 = EDGE_LOOP ( 'NONE', ( #70 ) ) ;
#142 = AXIS2_PLACEMENT_3D ( 'NONE', #107, #333, #275 ) ;
#143 = DIRECTION ( 'NONE',  ( -2.397782010439029904E-16, 1.000000000000000000, 0.000000000000000000 ) ) ;
#144 = FACE_OUTER_BOUND ( 'NONE', #176, .T. ) ;
#145 = EDGE_LOOP ( 'NONE', ( #229 ) ) ;
#146 = ORIENTED_EDGE ( 'NONE', *, *, #171, .T. ) ;
#147 = VECTOR ( 'NONE', #4, 39.37007874015748143 ) ;
#148 = LINE ( 'NONE', #294, #259 ) ;
#149 = COORDINATED_UNIVERSAL_TIME_OFFSET ( 5, 0, .BEHIND. ) ;
#150 = DATE_AND_TIME ( #65, #223 ) ;
#151 = DIRECTION ( 'NONE',  ( 1.000000000000000000, -2.397782010439029904E-16, 0.000000000000000000 ) ) ;
#152 = CIRCLE ( 'NONE', #175, 0.1249999999999999029 ) ;
#153 = PERSON_AND_ORGANIZATION_ROLE ( 'classification_officer' ) ;
#154 = CALENDAR_DATE ( 2023, 20, 12 ) ;
#155 = ORIENTED_EDGE ( 'NONE', *, *, #106, .T. ) ;
#156 = CARTESIAN_POINT ( 'NONE',  ( -4.000000000000000000, 4.125000000000000000, -0.1150000000000000050 ) ) ;
#157 = COORDINATED_UNIVERSAL_TIME_OFFSET ( 5, 0, .BEHIND. ) ;
#158 = EDGE_CURVE ( 'NONE', #302, #302, #320, .T. ) ;
#159 = DIRECTION ( 'NONE',  ( -0.000000000000000000, -0.000000000000000000, -1.000000000000000000 ) ) ;
#160 = CARTESIAN_POINT ( 'NONE',  ( 4.375000000000000000, -4.375000000000000000, 0.1150000000000000050 ) ) ;
#161 =( NAMED_UNIT ( * ) SI_UNIT ( $, .STERADIAN. ) SOLID_ANGLE_UNIT ( ) );
#162 = CARTESIAN_POINT ( 'NONE',  ( -1.049029629567079916E-15, -4.375000000000000000, -0.1150000000000000050 ) ) ;
#163 = CYLINDRICAL_SURFACE ( 'NONE', #328, 0.1249999999999999029 ) ;
#164 = LOCAL_TIME ( 14, 43, 34.00000000000000000, #102 ) ;
#165 = AXIS2_PLACEMENT_3D ( 'NONE', #338, #51, #21 ) ;
#166 = LINE ( 'NONE', #101, #228 ) ;
#167 = CARTESIAN_POINT ( 'NONE',  ( -4.125000000000000000, 4.125000000000000000, 0.000000000000000000 ) ) ;
#168 = FACE_OUTER_BOUND ( 'NONE', #376, .T. ) ;
#169 = CC_DESIGN_PERSON_AND_ORGANIZATION_ASSIGNMENT ( #35, #354, ( #257 ) ) ;
#170 = DIRECTION ( 'NONE',  ( -0.000000000000000000, -0.000000000000000000, -1.000000000000000000 ) ) ;
#171 = EDGE_CURVE ( 'NONE', #56, #202, #250, .T. ) ;
#172 = EDGE_LOOP ( 'NONE', ( #319 ) ) ;
#173 = CARTESIAN_POINT ( 'NONE',  ( -4.125000000000000000, 4.125000000000000000, 0.1150000000000000050 ) ) ;
#174 = ORIENTED_EDGE ( 'NONE', *, *, #234, .T. ) ;
#175 = AXIS2_PLACEMENT_3D ( 'NONE', #274, #224, #136 ) ;
#176 = EDGE_LOOP ( 'NONE', ( #93 ) ) ;
#177 = ORIENTED_EDGE ( 'NONE', *, *, #293, .F. ) ;
#178 = CC_DESIGN_DATE_AND_TIME_ASSIGNMENT ( #134, #339, ( #183 ) ) ;
#179 = DIRECTION ( 'NONE',  ( 1.000000000000000000, 0.000000000000000000, 0.000000000000000000 ) ) ;
#180 = VERTEX_POINT ( 'NONE', #138 ) ;
#181 = AXIS2_PLACEMENT_3D ( 'NONE', #219, #240, #151 ) ;
#182 = COORDINATED_UNIVERSAL_TIME_OFFSET ( 5, 0, .BEHIND. ) ;
#183 = PRODUCT_DEFINITION ( 'UNKNOWN', '', #257, #120 ) ;
#184 = DIRECTION ( 'NONE',  ( 1.000000000000000000, 0.000000000000000000, 0.000000000000000000 ) ) ;
#185 = CARTESIAN_POINT ( 'NONE',  ( -4.000000000000000000, -4.125000000000000000, -0.1150000000000000050 ) ) ;
#186 = AXIS2_PLACEMENT_3D ( 'NONE', #305, #222, #342 ) ;
#187 = APPROVAL_STATUS ( 'not_yet_approved' ) ;
#188 = ORIENTED_EDGE ( 'NONE', *, *, #140, .T. ) ;
#189 = DIRECTION ( 'NONE',  ( 1.000000000000000000, 0.000000000000000000, -0.000000000000000000 ) ) ;
#190 = CALENDAR_DATE ( 2023, 20, 12 ) ;
#191 = CARTESIAN_POINT ( 'NONE',  ( 4.375000000000000000, 4.375000000000000888, -0.1150000000000000050 ) ) ;
#192 = DIRECTION ( 'NONE',  ( 0.000000000000000000, 0.000000000000000000, 1.000000000000000000 ) ) ;
#193 = FACE_OUTER_BOUND ( 'NONE', #30, .T. ) ;
#194 = CARTESIAN_POINT ( 'NONE',  ( 4.375000000000000000, 3.178877665354779836E-17, -0.1150000000000000050 ) ) ;
#195 = CARTESIAN_POINT ( 'NONE',  ( -4.125000000000000000, 4.125000000000000000, -0.1150000000000000050 ) ) ;
#196 = CARTESIAN_POINT ( 'NONE',  ( -1.049029629567079916E-15, 3.178877665354779836E-17, -0.1150000000000000050 ) ) ;
#197 = APPLICATION_CONTEXT ( 'configuration controlled 3d designs of mechanical parts and assemblies' ) ;
#198 = EDGE_CURVE ( 'NONE', #59, #113, #283, .T. ) ;
#199 = AXIS2_PLACEMENT_3D ( 'NONE', #195, #82, #371 ) ;
#200 = ORIENTED_EDGE ( 'NONE', *, *, #53, .F. ) ;
#201 = ORIENTED_EDGE ( 'NONE', *, *, #6, .T. ) ;
#202 = VERTEX_POINT ( 'NONE', #160 ) ;
#203 = EDGE_LOOP ( 'NONE', ( #258 ) ) ;
#204 = AXIS2_PLACEMENT_3D ( 'NONE', #252, #369, #77 ) ;
#205 = ORIENTED_EDGE ( 'NONE', *, *, #221, .F. ) ;
#206 = ORIENTED_EDGE ( 'NONE', *, *, #276, .T. ) ;
#207 = ADVANCED_FACE ( 'NONE', ( #19, #137 ), #163, .F. ) ;
#208 = ORIENTED_EDGE ( 'NONE', *, *, #322, .T. ) ;
#209 = VECTOR ( 'NONE', #5, 39.37007874015748143 ) ;
#210 = AXIS2_PLACEMENT_3D ( 'NONE', #40, #306, #213 ) ;
#211 = ORIENTED_EDGE ( 'NONE', *, *, #276, .F. ) ;
#212 = APPROVAL_DATE_TIME ( #359, #116 ) ;
#213 = DIRECTION ( 'NONE',  ( 0.000000000000000000, 0.000000000000000000, 1.000000000000000000 ) ) ;
#214 = LENGTH_MEASURE_WITH_UNIT ( LENGTH_MEASURE( 0.02539999999999999897 ), #216 );
#215 = LINE ( 'NONE', #162, #288 ) ;
#216 =( LENGTH_UNIT ( ) NAMED_UNIT ( * ) SI_UNIT ( $, .METRE. ) );
#217 = CARTESIAN_POINT ( 'NONE',  ( 4.375000000000000000, 4.375000000000000000, 0.000000000000000000 ) ) ;
#218 = FACE_BOUND ( 'NONE', #286, .T. ) ;
#219 = CARTESIAN_POINT ( 'NONE',  ( 4.375000000000000000, -4.375000000000000000, 0.000000000000000000 ) ) ;
#220 = DIRECTION ( 'NONE',  ( 0.000000000000000000, 0.000000000000000000, 1.000000000000000000 ) ) ;
#221 = EDGE_CURVE ( 'NONE', #271, #271, #152, .T. ) ;
#222 = DIRECTION ( 'NONE',  ( -0.000000000000000000, -0.000000000000000000, -1.000000000000000000 ) ) ;
#223 = LOCAL_TIME ( 14, 43, 34.00000000000000000, #182 ) ;
#224 = DIRECTION ( 'NONE',  ( -0.000000000000000000, -0.000000000000000000, -1.000000000000000000 ) ) ;
#225 = APPROVAL ( #187, 'UNSPECIFIED' ) ;
#226 = VECTOR ( 'NONE', #111, 39.37007874015748143 ) ;
#227 = EDGE_LOOP ( 'NONE', ( #321 ) ) ;
#228 = VECTOR ( 'NONE', #309, 39.37007874015748143 ) ;
#229 = ORIENTED_EDGE ( 'NONE', *, *, #53, .T. ) ;
#230 = ORIENTED_EDGE ( 'NONE', *, *, #57, .T. ) ;
#231 = DIRECTION ( 'NONE',  ( 0.000000000000000000, 0.000000000000000000, 1.000000000000000000 ) ) ;
#232 = ORIENTED_EDGE ( 'NONE', *, *, #287, .F. ) ;
#233 = ORIENTED_EDGE ( 'NONE', *, *, #198, .F. ) ;
#234 = EDGE_CURVE ( 'NONE', #130, #130, #372, .T. ) ;
#235 = EDGE_LOOP ( 'NONE', ( #86 ) ) ;
#236 = CARTESIAN_POINT ( 'NONE',  ( -4.375000000000000000, 4.375000000000000000, 0.1150000000000000050 ) ) ;
#237 = DATE_AND_TIME ( #361, #58 ) ;
#238 = CC_DESIGN_APPROVAL ( #116, ( #257 ) ) ;
#239 = APPROVAL_ROLE ( '' ) ;
#240 = DIRECTION ( 'NONE',  ( -2.397782010439029904E-16, -1.000000000000000000, 0.000000000000000000 ) ) ;
#241 = PERSON_AND_ORGANIZATION_ROLE ( 'design_owner' ) ;
#242 = ADVANCED_FACE ( 'NONE', ( #344, #281, #310, #132, #168 ), #246, .T. ) ;
#243 = CARTESIAN_POINT ( 'NONE',  ( 4.250000000000000000, 4.125000000000000000, 0.1150000000000000050 ) ) ;
#244 =( NAMED_UNIT ( * ) PLANE_ANGLE_UNIT ( ) SI_UNIT ( $, .RADIAN. ) );
#245 = FACE_OUTER_BOUND ( 'NONE', #291, .T. ) ;
#246 = PLANE ( 'NONE',  #165 ) ;
#247 = AXIS2_PLACEMENT_3D ( 'NONE', #196, #307, #52 ) ;
#248 = CARTESIAN_POINT ( 'NONE',  ( 4.250000000000000000, -4.125000000000000000, -0.1150000000000000050 ) ) ;
#249 = DIRECTION ( 'NONE',  ( -1.000000000000000000, 2.397782010439029904E-16, -0.000000000000000000 ) ) ;
#250 = LINE ( 'NONE', #43, #98 ) ;
#251 = CC_DESIGN_PERSON_AND_ORGANIZATION_ASSIGNMENT ( #69, #241, ( #295 ) ) ;
#252 = CARTESIAN_POINT ( 'NONE',  ( 4.125000000000000000, 4.125000000000000000, 0.1150000000000000050 ) ) ;
#253 = CARTESIAN_POINT ( 'NONE',  ( -4.375000000000000000, 4.375000000000000000, -0.1150000000000000050 ) ) ;
#254 = AXIS2_PLACEMENT_3D ( 'NONE', #314, #170, #14 ) ;
#255 = ADVANCED_FACE ( 'NONE', ( #218, #370, #110, #83, #282 ), #22, .F. ) ;
#256 = ORIENTED_EDGE ( 'NONE', *, *, #171, .F. ) ;
#257 = PRODUCT_DEFINITION_FORMATION_WITH_SPECIFIED_SOURCE ( 'ANY', '', #295, .NOT_KNOWN. ) ;
#258 = ORIENTED_EDGE ( 'NONE', *, *, #158, .F. ) ;
#259 = VECTOR ( 'NONE', #351, 39.37007874015748143 ) ;
#260 = EDGE_CURVE ( 'NONE', #75, #75, #39, .T. ) ;
#261 = DIRECTION ( 'NONE',  ( -1.000000000000000000, -2.397782010439029904E-16, 0.000000000000000000 ) ) ;
#262 = ORIENTED_EDGE ( 'NONE', *, *, #269, .T. ) ;
#263 = MANIFOLD_SOLID_BREP ( 'Solid1', #17 ) ;
#264 = CARTESIAN_POINT ( 'NONE',  ( -1.049029629567079916E-15, 4.375000000000000000, -0.1150000000000000050 ) ) ;
#265 = CARTESIAN_POINT ( 'NONE',  ( -4.375000000000000000, 4.375000000000000000, 0.1150000000000000050 ) ) ;
#266 = DATE_TIME_ROLE ( 'classification_date' ) ;
#267 = VECTOR ( 'NONE', #50, 39.37007874015748143 ) ;
#268 = FACE_OUTER_BOUND ( 'NONE', #141, .T. ) ;
#269 = EDGE_CURVE ( 'NONE', #202, #347, #135, .T. ) ;
#270 = DATE_AND_TIME ( #154, #164 ) ;
#271 = VERTEX_POINT ( 'NONE', #12 ) ;
#272 = CARTESIAN_POINT ( 'NONE',  ( 4.250000000000000000, 4.125000000000000000, -0.1150000000000000050 ) ) ;
#273 = DIRECTION ( 'NONE',  ( 1.000000000000000000, -0.000000000000000000, 0.000000000000000000 ) ) ;
#274 = CARTESIAN_POINT ( 'NONE',  ( 4.125000000000000000, -4.125000000000000000, 0.1150000000000000050 ) ) ;
#275 = DIRECTION ( 'NONE',  ( 1.000000000000000000, 0.000000000000000000, 0.000000000000000000 ) ) ;
#276 = EDGE_CURVE ( 'NONE', #202, #180, #18, .T. ) ;
#277 = CARTESIAN_POINT ( 'NONE',  ( 4.125000000000000000, -4.125000000000000000, 0.000000000000000000 ) ) ;
#278 = CARTESIAN_POINT ( 'NONE',  ( -4.375000000000000000, 4.375000000000000000, 0.000000000000000000 ) ) ;
#279 = AXIS2_PLACEMENT_3D ( 'NONE', #277, #74, #71 ) ;
#280 = CC_DESIGN_APPROVAL ( #335, ( #81 ) ) ;
#281 = FACE_BOUND ( 'NONE', #145, .T. ) ;
#282 = FACE_OUTER_BOUND ( 'NONE', #318, .T. ) ;
#283 = LINE ( 'NONE', #278, #226 ) ;
#284 = CC_DESIGN_SECURITY_CLASSIFICATION ( #81, ( #257 ) ) ;
#285 = ORIENTED_EDGE ( 'NONE', *, *, #221, .T. ) ;
#286 = EDGE_LOOP ( 'NONE', ( #139 ) ) ;
#287 = EDGE_CURVE ( 'NONE', #373, #180, #166, .T. ) ;
#288 = VECTOR ( 'NONE', #189, 39.37007874015748143 ) ;
#289 = CARTESIAN_POINT ( 'NONE',  ( -4.375000000000000000, 4.375000000000000000, 0.000000000000000000 ) ) ;
#290 = EDGE_LOOP ( 'NONE', ( #25 ) ) ;
#291 = EDGE_LOOP ( 'NONE', ( #201, #87, #97, #353 ) ) ;
#292 = PERSON_AND_ORGANIZATION ( #84, #114 ) ;
#293 = EDGE_CURVE ( 'NONE', #373, #347, #215, .T. ) ;
#294 = CARTESIAN_POINT ( 'NONE',  ( -4.375000000000000000, -4.375000000000000000, 0.1150000000000000050 ) ) ;
#295 = PRODUCT ( 'BP1010ABS_Default', 'BP1010ABS_Default', '', ( #99 ) ) ;
#296 = CARTESIAN_POINT ( 'NONE',  ( 4.375000000000000000, 4.375000000000000888, 0.1150000000000000050 ) ) ;
#297 = AXIS2_PLACEMENT_3D ( 'NONE', #334, #368, #184 ) ;
#298 = PERSON_AND_ORGANIZATION_ROLE ( 'creator' ) ;
#299 = COORDINATED_UNIVERSAL_TIME_OFFSET ( 5, 0, .BEHIND. ) ;
#300 = LINE ( 'NONE', #37, #345 ) ;
#301 =( GEOMETRIC_REPRESENTATION_CONTEXT ( 3 ) GLOBAL_UNCERTAINTY_ASSIGNED_CONTEXT ( ( #125 ) ) GLOBAL_UNIT_ASSIGNED_CONTEXT ( ( #10, #244, #161 ) ) REPRESENTATION_CONTEXT ( 'NONE', 'WORKASPACE' ) );
#302 = VERTEX_POINT ( 'NONE', #156 ) ;
#303 = PERSON_AND_ORGANIZATION_ROLE ( 'creator' ) ;
#304 = CYLINDRICAL_SURFACE ( 'NONE', #279, 0.1249999999999999029 ) ;
#305 = CARTESIAN_POINT ( 'NONE',  ( -4.125000000000000000, -4.125000000000000000, -0.1150000000000000050 ) ) ;
#306 = DIRECTION ( 'NONE',  ( -1.000000000000000000, 0.000000000000000000, 0.000000000000000000 ) ) ;
#307 = DIRECTION ( 'NONE',  ( 0.000000000000000000, 0.000000000000000000, 1.000000000000000000 ) ) ;
#308 = APPROVAL_STATUS ( 'not_yet_approved' ) ;
#309 = DIRECTION ( 'NONE',  ( 0.000000000000000000, 0.000000000000000000, 1.000000000000000000 ) ) ;
#310 = FACE_BOUND ( 'NONE', #55, .T. ) ;
#311 = VECTOR ( 'NONE', #118, 39.37007874015748143 ) ;
#312 = VECTOR ( 'NONE', #131, 39.37007874015748143 ) ;
#313 = DIRECTION ( 'NONE',  ( 1.000000000000000000, 0.000000000000000000, 0.000000000000000000 ) ) ;
#314 = CARTESIAN_POINT ( 'NONE',  ( 4.125000000000000000, 4.125000000000000000, -0.1150000000000000050 ) ) ;
#315 = ADVANCED_FACE ( 'NONE', ( #193, #268 ), #304, .F. ) ;
#316 = EDGE_CURVE ( 'NONE', #331, #331, #23, .T. ) ;
#317 = EDGE_LOOP ( 'NONE', ( #90 ) ) ;
#318 = EDGE_LOOP ( 'NONE', ( #324, #88, #177, #54 ) ) ;
#319 = ORIENTED_EDGE ( 'NONE', *, *, #158, .T. ) ;
#320 = CIRCLE ( 'NONE', #199, 0.1249999999999999029 ) ;
#321 = ORIENTED_EDGE ( 'NONE', *, *, #316, .T. ) ;
#322 = EDGE_CURVE ( 'NONE', #56, #352, #300, .T. ) ;
#323 = ORIENTED_EDGE ( 'NONE', *, *, #2, .F. ) ;
#324 = ORIENTED_EDGE ( 'NONE', *, *, #34, .F. ) ;
#325 = DIRECTION ( 'NONE',  ( -0.000000000000000000, -0.000000000000000000, -1.000000000000000000 ) ) ;
#326 = LINE ( 'NONE', #264, #311 ) ;
#327 = APPROVAL_PERSON_ORGANIZATION ( #73, #225, #239 ) ;
#328 = AXIS2_PLACEMENT_3D ( 'NONE', #167, #192, #15 ) ;
#329 = APPROVAL_ROLE ( '' ) ;
#330 = ADVANCED_FACE ( 'NONE', ( #245 ), #104, .T. ) ;
#331 = VERTEX_POINT ( 'NONE', #13 ) ;
#332 = DIRECTION ( 'NONE',  ( 1.000000000000000000, 0.000000000000000000, 0.000000000000000000 ) ) ;
#333 = DIRECTION ( 'NONE',  ( 0.000000000000000000, 0.000000000000000000, 1.000000000000000000 ) ) ;
#334 = CARTESIAN_POINT ( 'NONE',  ( -4.125000000000000000, -4.125000000000000000, 0.1150000000000000050 ) ) ;
#335 = APPROVAL ( #3, 'UNSPECIFIED' ) ;
#336 = APPROVAL_DATE_TIME ( #270, #225 ) ;
#337 = CARTESIAN_POINT ( 'NONE',  ( 4.375000000000000000, -4.375000000000000000, -0.1150000000000000050 ) ) ;
#338 = CARTESIAN_POINT ( 'NONE',  ( -1.223867901161590080E-15, 3.178877665354779836E-17, 0.1150000000000000050 ) ) ;
#339 = DATE_TIME_ROLE ( 'creation_date' ) ;
#340 = CARTESIAN_POINT ( 'NONE',  ( -4.375000000000000000, -4.374999999999999112, -0.1150000000000000050 ) ) ;
#341 = LINE ( 'NONE', #194, #267 ) ;
#342 = DIRECTION ( 'NONE',  ( 1.000000000000000000, 0.000000000000000000, 0.000000000000000000 ) ) ;
#343 = ADVANCED_FACE ( 'NONE', ( #366 ), #76, .T. ) ;
#344 = FACE_BOUND ( 'NONE', #227, .T. ) ;
#345 = VECTOR ( 'NONE', #42, 39.37007874015748143 ) ;
#346 = EDGE_CURVE ( 'NONE', #364, #364, #64, .T. ) ;
#347 = VERTEX_POINT ( 'NONE', #337 ) ;
#348 = ORIENTED_EDGE ( 'NONE', *, *, #322, .F. ) ;
#349 = ORIENTED_EDGE ( 'NONE', *, *, #34, .T. ) ;
#350 = AXIS2_PLACEMENT_3D ( 'NONE', #45, #220, #313 ) ;
#351 = DIRECTION ( 'NONE',  ( 0.000000000000000000, 1.000000000000000000, -0.000000000000000000 ) ) ;
#352 = VERTEX_POINT ( 'NONE', #191 ) ;
#353 = ORIENTED_EDGE ( 'NONE', *, *, #198, .T. ) ;
#354 = PERSON_AND_ORGANIZATION_ROLE ( 'design_supplier' ) ;
#355 = FACE_OUTER_BOUND ( 'NONE', #92, .T. ) ;
#356 = SECURITY_CLASSIFICATION_LEVEL ( 'unclassified' ) ;
#357 = CC_DESIGN_PERSON_AND_ORGANIZATION_ASSIGNMENT ( #129, #153, ( #81 ) ) ;
#358 = APPROVAL_PERSON_ORGANIZATION ( #78, #116, #46 ) ;
#359 = DATE_AND_TIME ( #36, #27 ) ;
#360 = VERTEX_POINT ( 'NONE', #185 ) ;
#361 = CALENDAR_DATE ( 2023, 20, 12 ) ;
#362 = ADVANCED_FACE ( 'NONE', ( #128 ), #44, .T. ) ;
#363 = CARTESIAN_POINT ( 'NONE',  ( 4.375000000000000000, -4.375000000000000000, 0.1150000000000000050 ) ) ;
#364 = VERTEX_POINT ( 'NONE', #248 ) ;
#365 = AXIS2_PLACEMENT_3D ( 'NONE', #100, #159, #332 ) ;
#366 = FACE_OUTER_BOUND ( 'NONE', #123, .T. ) ;
#367 = FACE_OUTER_BOUND ( 'NONE', #290, .T. ) ;
#368 = DIRECTION ( 'NONE',  ( -0.000000000000000000, -0.000000000000000000, -1.000000000000000000 ) ) ;
#369 = DIRECTION ( 'NONE',  ( -0.000000000000000000, -0.000000000000000000, -1.000000000000000000 ) ) ;
#370 = FACE_BOUND ( 'NONE', #203, .T. ) ;
#371 = DIRECTION ( 'NONE',  ( 1.000000000000000000, 0.000000000000000000, 0.000000000000000000 ) ) ;
#372 = CIRCLE ( 'NONE', #204, 0.1249999999999999029 ) ;
#373 = VERTEX_POINT ( 'NONE', #340 ) ;
#374 = CC_DESIGN_APPROVAL ( #225, ( #183 ) ) ;
#375 = EDGE_LOOP ( 'NONE', ( #188 ) ) ;
#376 = EDGE_LOOP ( 'NONE', ( #323, #211, #256, #119 ) ) ;
ENDSEC;
END-ISO-10303-21;
