ISO-10303-21;
HEADER;
FILE_DESCRIPTION (( 'STEP AP203' ),
    '1' );
FILE_NAME ('568397.step',
    '2024-10-14T13:38:33',
    ( '' ),
    ( '' ),
    'SwSTEP 2.0',
    'SolidWorks 2023',
    '' );
FILE_SCHEMA (( 'CONFIG_CONTROL_DESIGN' ));
ENDSEC;

DATA;
#1 = CONICAL_SURFACE ( 'NONE', #67, 0.7311020051504210082, 0.08726646259969648989 ) ;
#2 = FACE_OUTER_BOUND ( 'NONE', #257, .T. ) ;
#3 = LINE ( 'NONE', #22, #170 ) ;
#4 = CARTESIAN_POINT ( 'NONE',  ( 0.7564970925740315266, -1.897507874015748041E-15, 0.000000000000000000 ) ) ;
#5 = CIRCLE ( 'NONE', #75, 0.6692913385826988470 ) ;
#6 = CARTESIAN_POINT ( 'NONE',  ( 0.4500020591638210776, -1.128731898623518732E-15, 0.000000000000000000 ) ) ;
#7 = CC_DESIGN_PERSON_AND_ORGANIZATION_ASSIGNMENT ( #234, #274, ( #145 ) ) ;
#8 = FACE_OUTER_BOUND ( 'NONE', #171, .T. ) ;
#9 =( NAMED_UNIT ( * ) SI_UNIT ( $, .STERADIAN. ) SOLID_ANGLE_UNIT ( ) );
#10 = AXIS2_PLACEMENT_3D ( 'NONE', #30, #250, #47 ) ;
#11 = COORDINATED_UNIVERSAL_TIME_OFFSET ( 5, 0, .BEHIND. ) ;
#12 = PERSON_AND_ORGANIZATION_ROLE ( 'design_supplier' ) ;
#13 = SECURITY_CLASSIFICATION_LEVEL ( 'unclassified' ) ;
#14 = CIRCLE ( 'NONE', #229, 0.7311020051504210082 ) ;
#15 = FACE_OUTER_BOUND ( 'NONE', #188, .T. ) ;
#16 = ORIENTED_EDGE ( 'NONE', *, *, #273, .T. ) ;
#17 = DIRECTION ( 'NONE',  ( -0.7071067811867198794, 0.7071067811863751551, 8.659560562352800469E-17 ) ) ;
#18 = CIRCLE ( 'NONE', #10, 0.6889763779527716681 ) ;
#19 = EDGE_CURVE ( 'NONE', #143, #169, #231, .T. ) ;
#20 = ORIENTED_EDGE ( 'NONE', *, *, #227, .T. ) ;
#21 = DIRECTION ( 'NONE',  ( -1.000000000000000000, 2.577303450022623802E-15, 0.000000000000000000 ) ) ;
#22 = CARTESIAN_POINT ( 'NONE',  ( 0.7564970925740297503, -0.6889763779527736665, 0.000000000000000000 ) ) ;
#23 = CARTESIAN_POINT ( 'NONE',  ( 1.062992125984244307, -0.3444881889763913296, 0.000000000000000000 ) ) ;
#24 = DIRECTION ( 'NONE',  ( 1.000000000000000000, -2.508281999999999843E-15, -0.000000000000000000 ) ) ;
#25 = CYLINDRICAL_SURFACE ( 'NONE', #41, 0.6889763779527716681 ) ;
#26 =( CONVERSION_BASED_UNIT ( 'INCH', #137 ) LENGTH_UNIT ( ) NAMED_UNIT ( #50 ) );
#27 = COORDINATED_UNIVERSAL_TIME_OFFSET ( 5, 0, .BEHIND. ) ;
#28 = CC_DESIGN_PERSON_AND_ORGANIZATION_ASSIGNMENT ( #225, #97, ( #216 ) ) ;
#29 = APPROVAL_ROLE ( '' ) ;
#30 = CARTESIAN_POINT ( 'NONE',  ( 0.4500020591638210776, -1.128731898623518732E-15, 0.000000000000000000 ) ) ;
#31 = ORIENTED_EDGE ( 'NONE', *, *, #144, .T. ) ;
#32 = CIRCLE ( 'NONE', #224, 0.6889763779527716681 ) ;
#33 = COORDINATED_UNIVERSAL_TIME_OFFSET ( 5, 0, .BEHIND. ) ;
#34 = DIRECTION ( 'NONE',  ( -2.577303450022624196E-15, -1.000000000000000000, 0.000000000000000000 ) ) ;
#35 = ORIENTED_EDGE ( 'NONE', *, *, #221, .T. ) ;
#36 = ORIENTED_EDGE ( 'NONE', *, *, #19, .F. ) ;
#37 = APPROVAL_PERSON_ORGANIZATION ( #76, #194, #203 ) ;
#38 = ORIENTED_EDGE ( 'NONE', *, *, #201, .T. ) ;
#39 = DIRECTION ( 'NONE',  ( -2.653106492670325004E-15, -1.000000000000000000, 0.000000000000000000 ) ) ;
#40 = DIRECTION ( 'NONE',  ( -1.000000000000000000, 2.510539374550804536E-15, 0.000000000000000000 ) ) ;
#41 = AXIS2_PLACEMENT_3D ( 'NONE', #4, #239, #90 ) ;
#42 = LINE ( 'NONE', #65, #192 ) ;
#43 = DIRECTION ( 'NONE',  ( -2.577303450022626169E-15, -1.000000000000000000, 0.000000000000000000 ) ) ;
#44 = CARTESIAN_POINT ( 'NONE',  ( 1.062992125984246972, -2.645989913863396038E-15, 0.000000000000000000 ) ) ;
#45 = CLOSED_SHELL ( 'NONE', ( #168, #245, #141, #261, #83, #173, #232, #251 ) ) ;
#46 = APPLICATION_PROTOCOL_DEFINITION ( 'international standard', 'config_control_design', 1994, #51 ) ;
#47 = DIRECTION ( 'NONE',  ( -2.478176394252524935E-15, -1.000000000000000000, 0.000000000000000000 ) ) ;
#48 = AXIS2_PLACEMENT_3D ( 'NONE', #267, #162, #246 ) ;
#49 = CALENDAR_DATE ( 2024, 14, 10 ) ;
#50 = DIMENSIONAL_EXPONENTS ( 1.000000000000000000, 0.000000000000000000, 0.000000000000000000, 0.000000000000000000, 0.000000000000000000, 0.000000000000000000, 0.000000000000000000 ) ;
#51 = APPLICATION_CONTEXT ( 'configuration controlled 3d designs of mechanical parts and assemblies' ) ;
#52 = SHAPE_DEFINITION_REPRESENTATION ( #272, #165 ) ;
#53 = ORIENTED_EDGE ( 'NONE', *, *, #19, .T. ) ;
#54 = APPROVAL_PERSON_ORGANIZATION ( #183, #161, #29 ) ;
#55 = ORIENTED_EDGE ( 'NONE', *, *, #94, .F. ) ;
#56 = CC_DESIGN_PERSON_AND_ORGANIZATION_ASSIGNMENT ( #118, #12, ( #216 ) ) ;
#57 = VERTEX_POINT ( 'NONE', #101 ) ;
#58 = CALENDAR_DATE ( 2024, 14, 10 ) ;
#59 = VERTEX_POINT ( 'NONE', #86 ) ;
#60 = CONICAL_SURFACE ( 'NONE', #81, 0.6889763779527722232, 0.7853981633972020315 ) ;
#61 = CC_DESIGN_APPROVAL ( #161, ( #124 ) ) ;
#62 = CARTESIAN_POINT ( 'NONE',  ( 0.4500020591638227985, 0.6889763779527705578, 8.695472232028369362E-17 ) ) ;
#63 = CC_DESIGN_PERSON_AND_ORGANIZATION_ASSIGNMENT ( #248, #247, ( #124 ) ) ;
#64 = DIRECTION ( 'NONE',  ( 1.000000000000000000, -0.000000000000000000, 0.000000000000000000 ) ) ;
#65 = CARTESIAN_POINT ( 'NONE',  ( -0.03149606299213062593, 0.7311020051504210082, 8.953417304576748654E-17 ) ) ;
#66 = VECTOR ( 'NONE', #103, 39.37007874015748143 ) ;
#67 = AXIS2_PLACEMENT_3D ( 'NONE', #197, #134, #264 ) ;
#68 = DIRECTION ( 'NONE',  ( 1.000000000000000000, -0.000000000000000000, 0.000000000000000000 ) ) ;
#69 = CARTESIAN_POINT ( 'NONE',  ( 0.4500020591638193568, -0.6889763779527727783, 0.000000000000000000 ) ) ;
#70 = APPLICATION_CONTEXT ( 'configuration controlled 3d designs of mechanical parts and assemblies' ) ;
#71 = CARTESIAN_POINT ( 'NONE',  ( 0.7564970925740315266, -1.897507874015748041E-15, 0.000000000000000000 ) ) ;
#72 =( LENGTH_UNIT ( ) NAMED_UNIT ( * ) SI_UNIT ( $, .METRE. ) );
#73 = PRODUCT_RELATED_PRODUCT_CATEGORY ( 'detail', '', ( #104 ) ) ;
#74 = APPROVAL_STATUS ( 'not_yet_approved' ) ;
#75 = AXIS2_PLACEMENT_3D ( 'NONE', #135, #21, #114 ) ;
#76 = PERSON_AND_ORGANIZATION ( #77, #180 ) ;
#77 = PERSON ( 'UNSPECIFIED', 'UNSPECIFIED', 'UNSPECIFIED', ('UNSPECIFIED'), ('UNSPECIFIED'), ('UNSPECIFIED') ) ;
#78 = CC_DESIGN_APPROVAL ( #198, ( #145 ) ) ;
#79 = ORIENTED_EDGE ( 'NONE', *, *, #273, .F. ) ;
#80 = VERTEX_POINT ( 'NONE', #99 ) ;
#81 = AXIS2_PLACEMENT_3D ( 'NONE', #187, #208, #34 ) ;
#82 = CC_DESIGN_SECURITY_CLASSIFICATION ( #145, ( #216 ) ) ;
#83 = ADVANCED_FACE ( 'NONE', ( #15 ), #60, .T. ) ;
#84 = APPROVAL_ROLE ( '' ) ;
#85 = ORIENTED_EDGE ( 'NONE', *, *, #144, .F. ) ;
#86 = CARTESIAN_POINT ( 'NONE',  ( 1.062992125984245195, -0.6692913385827014006, 0.000000000000000000 ) ) ;
#87 = APPROVAL_PERSON_ORGANIZATION ( #237, #198, #84 ) ;
#88 = PLANE ( 'NONE',  #249 ) ;
#89 = DIRECTION ( 'NONE',  ( -1.000000000000000000, 2.508281999999999843E-15, 0.000000000000000000 ) ) ;
#90 = DIRECTION ( 'NONE',  ( -2.577303450022626169E-15, -1.000000000000000000, 0.000000000000000000 ) ) ;
#91 = LOCAL_TIME ( 9, 38, 33.00000000000000000, #265 ) ;
#92 = LINE ( 'NONE', #109, #214 ) ;
#93 = DIRECTION ( 'NONE',  ( -1.000000000000000000, 2.577303450022623802E-15, 0.000000000000000000 ) ) ;
#94 = EDGE_CURVE ( 'NONE', #59, #57, #271, .T. ) ;
#95 = AXIS2_PLACEMENT_3D ( 'NONE', #174, #40, #260 ) ;
#96 = FACE_OUTER_BOUND ( 'NONE', #191, .T. ) ;
#97 = PERSON_AND_ORGANIZATION_ROLE ( 'creator' ) ;
#98 = CALENDAR_DATE ( 2024, 14, 10 ) ;
#99 = CARTESIAN_POINT ( 'NONE',  ( -0.03149606299213417865, -0.7311020051504210082, 0.000000000000000000 ) ) ;
#100 = DATE_AND_TIME ( #58, #202 ) ;
#101 = CARTESIAN_POINT ( 'NONE',  ( 1.043307086614161827, -0.6889763779527751097, 0.000000000000000000 ) ) ;
#102 = CC_DESIGN_PERSON_AND_ORGANIZATION_ASSIGNMENT ( #204, #266, ( #104 ) ) ;
#103 = DIRECTION ( 'NONE',  ( -0.7071067811867234321, -0.7071067811863716024, 0.000000000000000000 ) ) ;
#104 = PRODUCT ( '568397', '568397', '', ( #181 ) ) ;
#105 = DIRECTION ( 'NONE',  ( 1.000000000000000000, -2.510539374550804536E-15, -0.000000000000000000 ) ) ;
#106 = AXIS2_PLACEMENT_3D ( 'NONE', #23, #68, #259 ) ;
#107 = UNCERTAINTY_MEASURE_WITH_UNIT (LENGTH_MEASURE( 1.000000000000000082E-05 ), #26, 'distance_accuracy_value', 'NONE');
#108 = CARTESIAN_POINT ( 'NONE',  ( -0.03149606299213050797, 0.7311020051504210082, 8.953417304576748654E-17 ) ) ;
#109 = CARTESIAN_POINT ( 'NONE',  ( 0.7564970925740333030, 0.6889763779527697807, 8.437527159479990071E-17 ) ) ;
#110 = EDGE_CURVE ( 'NONE', #190, #80, #195, .T. ) ;
#111 = CARTESIAN_POINT ( 'NONE',  ( -0.03149606299213233984, 6.829619984160627231E-17, 0.000000000000000000 ) ) ;
#112 = MANIFOLD_SOLID_BREP ( 'Volumenk\X\F6rper1', #45 ) ;
#113 = VECTOR ( 'NONE', #17, 39.37007874015748143 ) ;
#114 = DIRECTION ( 'NONE',  ( -2.653106492670325004E-15, -1.000000000000000000, 0.000000000000000000 ) ) ;
#115 = EDGE_CURVE ( 'NONE', #80, #122, #14, .T. ) ;
#116 = DIRECTION ( 'NONE',  ( 0.000000000000000000, 0.000000000000000000, -1.000000000000000000 ) ) ;
#117 = DATE_TIME_ROLE ( 'creation_date' ) ;
#118 = PERSON_AND_ORGANIZATION ( #77, #180 ) ;
#119 = CC_DESIGN_DATE_AND_TIME_ASSIGNMENT ( #100, #230, ( #145 ) ) ;
#120 = DIRECTION ( 'NONE',  ( -2.577303450022626169E-15, -1.000000000000000000, 0.000000000000000000 ) ) ;
#121 = CIRCLE ( 'NONE', #158, 0.6889763779527716681 ) ;
#122 = VERTEX_POINT ( 'NONE', #108 ) ;
#123 = APPROVAL_DATE_TIME ( #126, #198 ) ;
#124 = PRODUCT_DEFINITION ( 'UNKNOWN', '', #216, #255 ) ;
#125 = VERTEX_POINT ( 'NONE', #62 ) ;
#126 = DATE_AND_TIME ( #186, #159 ) ;
#127 = CARTESIAN_POINT ( 'NONE',  ( 1.043307086614165824, 0.6889763779527696697, 8.437527159479996234E-17 ) ) ;
#128 = ORIENTED_EDGE ( 'NONE', *, *, #179, .F. ) ;
#129 = EDGE_LOOP ( 'NONE', ( #128, #79, #189, #211 ) ) ;
#130 = CC_DESIGN_DATE_AND_TIME_ASSIGNMENT ( #268, #117, ( #124 ) ) ;
#131 = DIRECTION ( 'NONE',  ( -1.000000000000000000, 2.577303450022623802E-15, 0.000000000000000000 ) ) ;
#132 = FACE_OUTER_BOUND ( 'NONE', #254, .T. ) ;
#133 = DIRECTION ( 'NONE',  ( -2.577303450022626169E-15, -1.000000000000000000, 0.000000000000000000 ) ) ;
#134 = DIRECTION ( 'NONE',  ( -1.000000000000000000, 2.510539374550804536E-15, 0.000000000000000000 ) ) ;
#135 = CARTESIAN_POINT ( 'NONE',  ( 1.062992125984246972, -2.645989913863396038E-15, 0.000000000000000000 ) ) ;
#136 = EDGE_CURVE ( 'NONE', #169, #57, #269, .T. ) ;
#137 = LENGTH_MEASURE_WITH_UNIT ( LENGTH_MEASURE( 0.02539999999999999897 ), #72 );
#138 = APPROVAL_DATE_TIME ( #142, #161 ) ;
#139 = CONICAL_SURFACE ( 'NONE', #155, 0.6889763779527722232, 0.7853981633972020315 ) ;
#140 = APPROVAL_DATE_TIME ( #164, #194 ) ;
#141 = ADVANCED_FACE ( 'NONE', ( #132 ), #1, .T. ) ;
#142 = DATE_AND_TIME ( #160, #91 ) ;
#143 = VERTEX_POINT ( 'NONE', #213 ) ;
#144 = EDGE_CURVE ( 'NONE', #169, #125, #92, .T. ) ;
#145 = SECURITY_CLASSIFICATION ( '', '', #13 ) ;
#146 = ORIENTED_EDGE ( 'NONE', *, *, #182, .F. ) ;
#147 = ORIENTED_EDGE ( 'NONE', *, *, #221, .F. ) ;
#148 = ORIENTED_EDGE ( 'NONE', *, *, #115, .F. ) ;
#149 = AXIS2_PLACEMENT_3D ( 'NONE', #177, #151, #43 ) ;
#150 = ORIENTED_EDGE ( 'NONE', *, *, #201, .F. ) ;
#151 = DIRECTION ( 'NONE',  ( -1.000000000000000000, 2.508281999999999843E-15, 0.000000000000000000 ) ) ;
#152 = CARTESIAN_POINT ( 'NONE',  ( 1.043307086614165380, 0.6889763779527698917, 8.437527159479999932E-17 ) ) ;
#153 = EDGE_CURVE ( 'NONE', #57, #190, #3, .T. ) ;
#154 = DIRECTION ( 'NONE',  ( -2.510539374550804142E-15, -1.000000000000000000, 0.000000000000000000 ) ) ;
#155 = AXIS2_PLACEMENT_3D ( 'NONE', #178, #131, #193 ) ;
#156 = DIRECTION ( 'NONE',  ( -1.000000000000000000, 2.508281999999999843E-15, 0.000000000000000000 ) ) ;
#157 = DIRECTION ( 'NONE',  ( -2.510539374550804142E-15, -1.000000000000000000, 0.000000000000000000 ) ) ;
#158 = AXIS2_PLACEMENT_3D ( 'NONE', #175, #215, #133 ) ;
#159 = LOCAL_TIME ( 9, 38, 33.00000000000000000, #33 ) ;
#160 = CALENDAR_DATE ( 2024, 14, 10 ) ;
#161 = APPROVAL ( #74, 'UNSPECIFIED' ) ;
#162 = DIRECTION ( 'NONE',  ( 0.000000000000000000, 0.000000000000000000, 1.000000000000000000 ) ) ;
#163 = AXIS2_PLACEMENT_3D ( 'NONE', #71, #184, #120 ) ;
#164 = DATE_AND_TIME ( #98, #270 ) ;
#165 = ADVANCED_BREP_SHAPE_REPRESENTATION ( '568397', ( #112, #48 ), #236 ) ;
#166 = ORIENTED_EDGE ( 'NONE', *, *, #212, .T. ) ;
#167 = EDGE_LOOP ( 'NONE', ( #147, #228 ) ) ;
#168 = ADVANCED_FACE ( 'NONE', ( #196 ), #25, .T. ) ;
#169 = VERTEX_POINT ( 'NONE', #152 ) ;
#170 = VECTOR ( 'NONE', #89, 39.37007874015748143 ) ;
#171 = EDGE_LOOP ( 'NONE', ( #35, #53, #146, #55 ) ) ;
#172 = CARTESIAN_POINT ( 'NONE',  ( -0.03149606299212964755, 2.767828740157480074E-29, -4.526736220472441889E-31 ) ) ;
#173 = ADVANCED_FACE ( 'NONE', ( #240 ), #209, .T. ) ;
#174 = CARTESIAN_POINT ( 'NONE',  ( -0.03149606299213246474, 6.829619984160658046E-17, 0.000000000000000000 ) ) ;
#175 = CARTESIAN_POINT ( 'NONE',  ( 1.043307086614163603, -2.616908219486719056E-15, 0.000000000000000000 ) ) ;
#176 = AXIS2_PLACEMENT_3D ( 'NONE', #243, #218, #157 ) ;
#177 = CARTESIAN_POINT ( 'NONE',  ( 1.043307086614163603, -2.616908219486719056E-15, 0.000000000000000000 ) ) ;
#178 = CARTESIAN_POINT ( 'NONE',  ( 1.043307086614164048, -2.595255593981049564E-15, 0.000000000000000000 ) ) ;
#179 = EDGE_CURVE ( 'NONE', #125, #122, #42, .T. ) ;
#180 = ORGANIZATION ( 'UNSPECIFIED', 'UNSPECIFIED', '' ) ;
#181 = MECHANICAL_CONTEXT ( 'NONE', #70, 'mechanical' ) ;
#182 = EDGE_CURVE ( 'NONE', #57, #169, #121, .T. ) ;
#183 = PERSON_AND_ORGANIZATION ( #77, #180 ) ;
#184 = DIRECTION ( 'NONE',  ( -1.000000000000000000, 2.508281999999999843E-15, 0.000000000000000000 ) ) ;
#185 = CC_DESIGN_APPROVAL ( #194, ( #216 ) ) ;
#186 = CALENDAR_DATE ( 2024, 14, 10 ) ;
#187 = CARTESIAN_POINT ( 'NONE',  ( 1.043307086614164048, -2.595255593981049564E-15, 0.000000000000000000 ) ) ;
#188 = EDGE_LOOP ( 'NONE', ( #36, #20, #256, #235 ) ) ;
#189 = ORIENTED_EDGE ( 'NONE', *, *, #110, .T. ) ;
#190 = VERTEX_POINT ( 'NONE', #69 ) ;
#191 = EDGE_LOOP ( 'NONE', ( #85, #233, #275, #16 ) ) ;
#192 = VECTOR ( 'NONE', #242, 39.37007874015748143 ) ;
#193 = DIRECTION ( 'NONE',  ( -2.577303450022624196E-15, -1.000000000000000000, 0.000000000000000000 ) ) ;
#194 = APPROVAL ( #226, 'UNSPECIFIED' ) ;
#195 = LINE ( 'NONE', #219, #205 ) ;
#196 = FACE_OUTER_BOUND ( 'NONE', #238, .T. ) ;
#197 = CARTESIAN_POINT ( 'NONE',  ( -0.03149606299213246474, 6.829619984160658046E-17, 0.000000000000000000 ) ) ;
#198 = APPROVAL ( #206, 'UNSPECIFIED' ) ;
#199 = DIRECTION ( 'NONE',  ( -0.9961946980917474326, -0.08715574274763575324, 0.000000000000000000 ) ) ;
#200 =( NAMED_UNIT ( * ) PLANE_ANGLE_UNIT ( ) SI_UNIT ( $, .RADIAN. ) );
#201 = EDGE_CURVE ( 'NONE', #122, #80, #253, .T. ) ;
#202 = LOCAL_TIME ( 9, 38, 33.00000000000000000, #276 ) ;
#203 = APPROVAL_ROLE ( '' ) ;
#204 = PERSON_AND_ORGANIZATION ( #77, #180 ) ;
#205 = VECTOR ( 'NONE', #199, 39.37007874015748854 ) ;
#206 = APPROVAL_STATUS ( 'not_yet_approved' ) ;
#207 = ORIENTED_EDGE ( 'NONE', *, *, #153, .F. ) ;
#208 = DIRECTION ( 'NONE',  ( -1.000000000000000000, 2.577303450022623802E-15, 0.000000000000000000 ) ) ;
#209 = CONICAL_SURFACE ( 'NONE', #95, 0.7311020051504210082, 0.08726646259969648989 ) ;
#210 = ORIENTED_EDGE ( 'NONE', *, *, #212, .F. ) ;
#211 = ORIENTED_EDGE ( 'NONE', *, *, #115, .T. ) ;
#212 = EDGE_CURVE ( 'NONE', #125, #190, #32, .T. ) ;
#213 = CARTESIAN_POINT ( 'NONE',  ( 1.062992125984248748, 0.6692913385826961825, 8.316991057201749576E-17 ) ) ;
#214 = VECTOR ( 'NONE', #156, 39.37007874015748143 ) ;
#215 = DIRECTION ( 'NONE',  ( -1.000000000000000000, 2.508281999999999843E-15, 0.000000000000000000 ) ) ;
#216 = PRODUCT_DEFINITION_FORMATION_WITH_SPECIFIED_SOURCE ( 'ANY', '', #104, .NOT_KNOWN. ) ;
#217 = PLANE ( 'NONE',  #106 ) ;
#218 = DIRECTION ( 'NONE',  ( 1.000000000000000000, -2.510539374550804536E-15, -0.000000000000000000 ) ) ;
#219 = CARTESIAN_POINT ( 'NONE',  ( -0.03149606299213429661, -0.7311020051504210082, 0.000000000000000000 ) ) ;
#220 = CYLINDRICAL_SURFACE ( 'NONE', #163, 0.6889763779527716681 ) ;
#221 = EDGE_CURVE ( 'NONE', #59, #143, #223, .T. ) ;
#222 = APPLICATION_PROTOCOL_DEFINITION ( 'international standard', 'config_control_design', 1994, #70 ) ;
#223 = CIRCLE ( 'NONE', #241, 0.6692913385826988470 ) ;
#224 = AXIS2_PLACEMENT_3D ( 'NONE', #6, #24, #244 ) ;
#225 = PERSON_AND_ORGANIZATION ( #77, #180 ) ;
#226 = APPROVAL_STATUS ( 'not_yet_approved' ) ;
#227 = EDGE_CURVE ( 'NONE', #143, #59, #5, .T. ) ;
#228 = ORIENTED_EDGE ( 'NONE', *, *, #227, .F. ) ;
#229 = AXIS2_PLACEMENT_3D ( 'NONE', #111, #105, #154 ) ;
#230 = DATE_TIME_ROLE ( 'classification_date' ) ;
#231 = LINE ( 'NONE', #127, #113 ) ;
#232 = ADVANCED_FACE ( 'NONE', ( #263 ), #217, .T. ) ;
#233 = ORIENTED_EDGE ( 'NONE', *, *, #136, .T. ) ;
#234 = PERSON_AND_ORGANIZATION ( #77, #180 ) ;
#235 = ORIENTED_EDGE ( 'NONE', *, *, #136, .F. ) ;
#236 =( GEOMETRIC_REPRESENTATION_CONTEXT ( 3 ) GLOBAL_UNCERTAINTY_ASSIGNED_CONTEXT ( ( #107 ) ) GLOBAL_UNIT_ASSIGNED_CONTEXT ( ( #26, #200, #9 ) ) REPRESENTATION_CONTEXT ( 'NONE', 'WORKASPACE' ) );
#237 = PERSON_AND_ORGANIZATION ( #77, #180 ) ;
#238 = EDGE_LOOP ( 'NONE', ( #277, #31, #166, #207 ) ) ;
#239 = DIRECTION ( 'NONE',  ( -1.000000000000000000, 2.508281999999999843E-15, 0.000000000000000000 ) ) ;
#240 = FACE_OUTER_BOUND ( 'NONE', #129, .T. ) ;
#241 = AXIS2_PLACEMENT_3D ( 'NONE', #44, #93, #39 ) ;
#242 = DIRECTION ( 'NONE',  ( -0.9961946980917470995, 0.08715574274764076312, 1.067350013832053461E-17 ) ) ;
#243 = CARTESIAN_POINT ( 'NONE',  ( -0.03149606299213233984, 6.829619984160627231E-17, 0.000000000000000000 ) ) ;
#244 = DIRECTION ( 'NONE',  ( -2.478176394252524935E-15, -1.000000000000000000, 0.000000000000000000 ) ) ;
#245 = ADVANCED_FACE ( 'NONE', ( #8 ), #139, .T. ) ;
#246 = DIRECTION ( 'NONE',  ( 1.000000000000000000, 0.000000000000000000, 0.000000000000000000 ) ) ;
#247 = PERSON_AND_ORGANIZATION_ROLE ( 'creator' ) ;
#248 = PERSON_AND_ORGANIZATION ( #77, #180 ) ;
#249 = AXIS2_PLACEMENT_3D ( 'NONE', #172, #64, #116 ) ;
#250 = DIRECTION ( 'NONE',  ( 1.000000000000000000, -2.508281999999999843E-15, -0.000000000000000000 ) ) ;
#251 = ADVANCED_FACE ( 'NONE', ( #2 ), #88, .F. ) ;
#252 = CARTESIAN_POINT ( 'NONE',  ( 1.043307086614162271, -0.6889763779527748877, 0.000000000000000000 ) ) ;
#253 = CIRCLE ( 'NONE', #176, 0.7311020051504210082 ) ;
#254 = EDGE_LOOP ( 'NONE', ( #210, #258, #38, #278 ) ) ;
#255 = DESIGN_CONTEXT ( 'detailed design', #51, 'design' ) ;
#256 = ORIENTED_EDGE ( 'NONE', *, *, #94, .T. ) ;
#257 = EDGE_LOOP ( 'NONE', ( #148, #150 ) ) ;
#258 = ORIENTED_EDGE ( 'NONE', *, *, #179, .T. ) ;
#259 = DIRECTION ( 'NONE',  ( 0.000000000000000000, 0.000000000000000000, -1.000000000000000000 ) ) ;
#260 = DIRECTION ( 'NONE',  ( -2.510539374550804142E-15, -1.000000000000000000, 0.000000000000000000 ) ) ;
#261 = ADVANCED_FACE ( 'NONE', ( #96 ), #220, .T. ) ;
#262 = LOCAL_TIME ( 9, 38, 33.00000000000000000, #27 ) ;
#263 = FACE_OUTER_BOUND ( 'NONE', #167, .T. ) ;
#264 = DIRECTION ( 'NONE',  ( -2.510539374550804142E-15, -1.000000000000000000, 0.000000000000000000 ) ) ;
#265 = COORDINATED_UNIVERSAL_TIME_OFFSET ( 5, 0, .BEHIND. ) ;
#266 = PERSON_AND_ORGANIZATION_ROLE ( 'design_owner' ) ;
#267 = CARTESIAN_POINT ( 'NONE',  ( 0.000000000000000000, 0.000000000000000000, 0.000000000000000000 ) ) ;
#268 = DATE_AND_TIME ( #49, #262 ) ;
#269 = CIRCLE ( 'NONE', #149, 0.6889763779527716681 ) ;
#270 = LOCAL_TIME ( 9, 38, 33.00000000000000000, #11 ) ;
#271 = LINE ( 'NONE', #252, #66 ) ;
#272 = PRODUCT_DEFINITION_SHAPE ( 'NONE', 'NONE',  #124 ) ;
#273 = EDGE_CURVE ( 'NONE', #190, #125, #18, .T. ) ;
#274 = PERSON_AND_ORGANIZATION_ROLE ( 'classification_officer' ) ;
#275 = ORIENTED_EDGE ( 'NONE', *, *, #153, .T. ) ;
#276 = COORDINATED_UNIVERSAL_TIME_OFFSET ( 5, 0, .BEHIND. ) ;
#277 = ORIENTED_EDGE ( 'NONE', *, *, #182, .T. ) ;
#278 = ORIENTED_EDGE ( 'NONE', *, *, #110, .F. ) ;
ENDSEC;
END-ISO-10303-21;
