ISO-10303-21;
HEADER;
FILE_DESCRIPTION (( 'STEP AP203' ),
    '1' );
FILE_NAME ('161123.step',
    '2022-01-27T15:38:55',
    ( '' ),
    ( '' ),
    'SwSTEP 2.0',
    'SolidWorks 2021',
    '' );
FILE_SCHEMA (( 'CONFIG_CONTROL_DESIGN' ));
ENDSEC;

DATA;
#1 = VECTOR ( 'NONE', #358, 1000.000000000000000 ) ;
#2 = APPROVAL_STATUS ( 'not_yet_approved' ) ;
#3 = ORIENTED_EDGE ( 'NONE', *, *, #93, .T. ) ;
#4 = VERTEX_POINT ( 'NONE', #310 ) ;
#5 = EDGE_CURVE ( 'NONE', #119, #337, #33, .T. ) ;
#6 = CIRCLE ( 'NONE', #349, 16.00000000000000000 ) ;
#7 = EDGE_LOOP ( 'NONE', ( #29, #186, #395, #391 ) ) ;
#8 = VECTOR ( 'NONE', #321, 1000.000000000000000 ) ;
#9 = ORIENTED_EDGE ( 'NONE', *, *, #93, .F. ) ;
#10 = APPROVAL ( #336, 'UNSPECIFIED' ) ;
#11 = DIRECTION ( 'NONE',  ( -0.000000000000000000, -0.000000000000000000, 1.000000000000000000 ) ) ;
#12 = FACE_OUTER_BOUND ( 'NONE', #63, .T. ) ;
#13 = CARTESIAN_POINT ( 'NONE',  ( 0.000000000000000000, 0.000000000000000000, -1.749999999999999778 ) ) ;
#14 = EDGE_CURVE ( 'NONE', #113, #237, #130, .T. ) ;
#15 = DIRECTION ( 'NONE',  ( -0.000000000000000000, -0.000000000000000000, 1.000000000000000000 ) ) ;
#16 = CARTESIAN_POINT ( 'NONE',  ( 8.000000000000000000, -11.85640646055101932, 1.750000000000000000 ) ) ;
#17 = DIRECTION ( 'NONE',  ( 1.000000000000000000, 0.000000000000000000, 0.000000000000000000 ) ) ;
#18 = AXIS2_PLACEMENT_3D ( 'NONE', #313, #137, #38 ) ;
#19 = CARTESIAN_POINT ( 'NONE',  ( 0.000000000000000000, 0.000000000000000000, 3.750000000000000000 ) ) ;
#20 = APPLICATION_CONTEXT ( 'configuration controlled 3d designs of mechanical parts and assemblies' ) ;
#21 = DIRECTION ( 'NONE',  ( 0.000000000000000000, 0.000000000000000000, 1.000000000000000000 ) ) ;
#22 = ORIENTED_EDGE ( 'NONE', *, *, #184, .F. ) ;
#23 = DIRECTION ( 'NONE',  ( 0.000000000000000000, 0.000000000000000000, 1.000000000000000000 ) ) ;
#24 = EDGE_CURVE ( 'NONE', #61, #217, #69, .T. ) ;
#25 = VECTOR ( 'NONE', #223, 1000.000000000000000 ) ;
#26 = DIRECTION ( 'NONE',  ( 1.000000000000000000, 0.000000000000000000, 0.000000000000000000 ) ) ;
#27 = CC_DESIGN_APPROVAL ( #286, ( #106 ) ) ;
#28 = ORIENTED_EDGE ( 'NONE', *, *, #5, .T. ) ;
#29 = ORIENTED_EDGE ( 'NONE', *, *, #65, .T. ) ;
#30 = EDGE_CURVE ( 'NONE', #212, #4, #133, .T. ) ;
#31 = PERSON_AND_ORGANIZATION ( #155, #134 ) ;
#32 = EDGE_LOOP ( 'NONE', ( #87, #331, #53, #22 ) ) ;
#33 = LINE ( 'NONE', #36, #143 ) ;
#34 = SECURITY_CLASSIFICATION ( '', '', #135 ) ;
#35 = DATE_TIME_ROLE ( 'classification_date' ) ;
#36 = CARTESIAN_POINT ( 'NONE',  ( -2.552699999999993530, 3.126155884183440365E-16, 3.750000000000000000 ) ) ;
#37 = CIRCLE ( 'NONE', #261, 4.500000000000000000 ) ;
#38 = DIRECTION ( 'NONE',  ( 0.000000000000000000, 1.000000000000000000, 0.000000000000000000 ) ) ;
#39 = LINE ( 'NONE', #16, #283 ) ;
#40 = APPROVAL_PERSON_ORGANIZATION ( #272, #10, #118 ) ;
#41 = APPROVAL_STATUS ( 'not_yet_approved' ) ;
#42 = CARTESIAN_POINT ( 'NONE',  ( -4.500000000000000000, 0.000000000000000000, 3.750000000000000000 ) ) ;
#43 = PLANE ( 'NONE',  #18 ) ;
#44 = CIRCLE ( 'NONE', #320, 4.500000000000000000 ) ;
#45 = CARTESIAN_POINT ( 'NONE',  ( 4.500000000000000000, 5.510910596163088569E-16, 3.750000000000000000 ) ) ;
#46 = CARTESIAN_POINT ( 'NONE',  ( 0.000000000000000000, 0.000000000000000000, 1.750000000000000000 ) ) ;
#47 = CARTESIAN_POINT ( 'NONE',  ( 0.000000000000000000, -2.000000000000000000, 1.750000000000000000 ) ) ;
#48 = DIRECTION ( 'NONE',  ( 0.000000000000000000, -1.000000000000000000, 0.000000000000000000 ) ) ;
#49 = ORIENTED_EDGE ( 'NONE', *, *, #59, .F. ) ;
#50 = EDGE_CURVE ( 'NONE', #265, #306, #376, .T. ) ;
#51 = PLANE ( 'NONE',  #234 ) ;
#52 = CARTESIAN_POINT ( 'NONE',  ( -8.000000000000000000, 11.85640646055099978, 1.750000000000000000 ) ) ;
#53 = ORIENTED_EDGE ( 'NONE', *, *, #238, .F. ) ;
#54 = APPROVAL_DATE_TIME ( #60, #286 ) ;
#55 = EDGE_LOOP ( 'NONE', ( #342, #215 ) ) ;
#56 = DIRECTION ( 'NONE',  ( 1.000000000000000000, 0.000000000000000000, 0.000000000000000000 ) ) ;
#57 = AXIS2_PLACEMENT_3D ( 'NONE', #46, #333, #182 ) ;
#58 = EDGE_LOOP ( 'NONE', ( #307, #334 ) ) ;
#59 = EDGE_CURVE ( 'NONE', #265, #274, #39, .T. ) ;
#60 = DATE_AND_TIME ( #330, #356 ) ;
#61 = VERTEX_POINT ( 'NONE', #379 ) ;
#62 = FACE_OUTER_BOUND ( 'NONE', #244, .T. ) ;
#63 = EDGE_LOOP ( 'NONE', ( #250, #270, #242, #96 ) ) ;
#64 = PERSON_AND_ORGANIZATION ( #155, #134 ) ;
#65 = EDGE_CURVE ( 'NONE', #274, #219, #164, .T. ) ;
#66 = EDGE_LOOP ( 'NONE', ( #387, #49, #189, #125 ) ) ;
#67 = COORDINATED_UNIVERSAL_TIME_OFFSET ( 5, 0, .BEHIND. ) ;
#68 = DIRECTION ( 'NONE',  ( 0.000000000000000000, 1.000000000000000000, 0.000000000000000000 ) ) ;
#69 = LINE ( 'NONE', #75, #173 ) ;
#70 = PERSON_AND_ORGANIZATION ( #155, #134 ) ;
#71 = DIRECTION ( 'NONE',  ( 1.000000000000000000, 0.000000000000000000, 0.000000000000000000 ) ) ;
#72 = LOCAL_TIME ( 10, 38, 55.00000000000000000, #352 ) ;
#73 = ADVANCED_FACE ( 'NONE', ( #12 ), #43, .F. ) ;
#74 = CARTESIAN_POINT ( 'NONE',  ( 8.000000000000000000, 11.85640646055099978, -1.750000000000000000 ) ) ;
#75 = CARTESIAN_POINT ( 'NONE',  ( -8.000000000000000000, -11.85640646055099978, 1.750000000000000000 ) ) ;
#76 = VECTOR ( 'NONE', #226, 1000.000000000000000 ) ;
#77 = PLANE ( 'NONE',  #296 ) ;
#78 = EDGE_CURVE ( 'NONE', #119, #122, #241, .T. ) ;
#79 = CARTESIAN_POINT ( 'NONE',  ( 8.000000000000000000, 11.85640646055099978, 1.750000000000000000 ) ) ;
#80 = LINE ( 'NONE', #52, #343 ) ;
#81 = ORIENTED_EDGE ( 'NONE', *, *, #108, .T. ) ;
#82 = APPLICATION_CONTEXT ( 'configuration controlled 3d designs of mechanical parts and assemblies' ) ;
#83 = CC_DESIGN_DATE_AND_TIME_ASSIGNMENT ( #317, #35, ( #34 ) ) ;
#84 = DIRECTION ( 'NONE',  ( -1.000000000000000000, 0.000000000000000000, 0.000000000000000000 ) ) ;
#85 = APPROVAL_PERSON_ORGANIZATION ( #70, #299, #101 ) ;
#86 = DIRECTION ( 'NONE',  ( 0.000000000000000000, 0.000000000000000000, 1.000000000000000000 ) ) ;
#87 = ORIENTED_EDGE ( 'NONE', *, *, #281, .F. ) ;
#88 = CALENDAR_DATE ( 2022, 27, 1 ) ;
#89 = ORIENTED_EDGE ( 'NONE', *, *, #50, .T. ) ;
#90 = VECTOR ( 'NONE', #361, 1000.000000000000000 ) ;
#91 = CARTESIAN_POINT ( 'NONE',  ( 0.000000000000000000, -2.000000000000000000, 1.750000000000000000 ) ) ;
#92 = EDGE_LOOP ( 'NONE', ( #9, #161, #148, #181 ) ) ;
#93 = EDGE_CURVE ( 'NONE', #362, #204, #198, .T. ) ;
#94 = ORIENTED_EDGE ( 'NONE', *, *, #304, .T. ) ;
#95 = DATE_TIME_ROLE ( 'creation_date' ) ;
#96 = ORIENTED_EDGE ( 'NONE', *, *, #14, .T. ) ;
#97 = CIRCLE ( 'NONE', #197, 2.552699999999987757 ) ;
#98 = ORIENTED_EDGE ( 'NONE', *, *, #5, .F. ) ;
#99 = FACE_OUTER_BOUND ( 'NONE', #66, .T. ) ;
#100 = LOCAL_TIME ( 10, 38, 55.00000000000000000, #67 ) ;
#101 = APPROVAL_ROLE ( '' ) ;
#102 = CARTESIAN_POINT ( 'NONE',  ( 8.000000000000000000, 11.85640646055099978, 1.750000000000000000 ) ) ;
#103 = PERSON_AND_ORGANIZATION_ROLE ( 'classification_officer' ) ;
#104 = CARTESIAN_POINT ( 'NONE',  ( -8.000000000000000000, 11.85640646055099978, -1.750000000000000000 ) ) ;
#105 = DIRECTION ( 'NONE',  ( 0.000000000000000000, 0.000000000000000000, -1.000000000000000000 ) ) ;
#106 = PRODUCT_DEFINITION_FORMATION_WITH_SPECIFIED_SOURCE ( 'ANY', '', #210, .NOT_KNOWN. ) ;
#107 = DIRECTION ( 'NONE',  ( 1.000000000000000000, 0.000000000000000000, 0.000000000000000000 ) ) ;
#108 = EDGE_CURVE ( 'NONE', #337, #254, #97, .T. ) ;
#109 = CYLINDRICAL_SURFACE ( 'NONE', #214, 2.552699999999993530 ) ;
#110 = DIRECTION ( 'NONE',  ( 0.000000000000000000, 0.000000000000000000, -1.000000000000000000 ) ) ;
#111 = CC_DESIGN_APPROVAL ( #10, ( #149 ) ) ;
#112 = DIRECTION ( 'NONE',  ( 1.000000000000000000, 0.000000000000000000, 0.000000000000000000 ) ) ;
#113 = VERTEX_POINT ( 'NONE', #163 ) ;
#114 = CARTESIAN_POINT ( 'NONE',  ( -2.552699999999987757, 3.126155884183436914E-16, 3.750000000000001332 ) ) ;
#115 = ORIENTED_EDGE ( 'NONE', *, *, #386, .F. ) ;
#116 = CC_DESIGN_DATE_AND_TIME_ASSIGNMENT ( #369, #95, ( #149 ) ) ;
#117 = CARTESIAN_POINT ( 'NONE',  ( 0.000000000000000000, 0.000000000000000000, 3.750000000000000000 ) ) ;
#118 = APPROVAL_ROLE ( '' ) ;
#119 = VERTEX_POINT ( 'NONE', #285 ) ;
#120 = CC_DESIGN_PERSON_AND_ORGANIZATION_ASSIGNMENT ( #31, #339, ( #106 ) ) ;
#121 = COORDINATED_UNIVERSAL_TIME_OFFSET ( 5, 0, .BEHIND. ) ;
#122 = VERTEX_POINT ( 'NONE', #318 ) ;
#123 = AXIS2_PLACEMENT_3D ( 'NONE', #203, #267, #360 ) ;
#124 = PERSON_AND_ORGANIZATION ( #155, #134 ) ;
#125 = ORIENTED_EDGE ( 'NONE', *, *, #24, .T. ) ;
#126 = APPLICATION_PROTOCOL_DEFINITION ( 'international standard', 'config_control_design', 1994, #20 ) ;
#127 =( GEOMETRIC_REPRESENTATION_CONTEXT ( 3 ) GLOBAL_UNCERTAINTY_ASSIGNED_CONTEXT ( ( #138 ) ) GLOBAL_UNIT_ASSIGNED_CONTEXT ( ( #305, #159, #308 ) ) REPRESENTATION_CONTEXT ( 'NONE', 'WORKASPACE' ) );
#128 = ORIENTED_EDGE ( 'NONE', *, *, #245, .T. ) ;
#129 = COORDINATED_UNIVERSAL_TIME_OFFSET ( 5, 0, .BEHIND. ) ;
#130 = LINE ( 'NONE', #312, #365 ) ;
#131 = CALENDAR_DATE ( 2022, 27, 1 ) ;
#132 = EDGE_LOOP ( 'NONE', ( #324, #282, #368, #174 ) ) ;
#133 = LINE ( 'NONE', #255, #8 ) ;
#134 = ORGANIZATION ( 'UNSPECIFIED', 'UNSPECIFIED', '' ) ;
#135 = SECURITY_CLASSIFICATION_LEVEL ( 'unclassified' ) ;
#136 = CYLINDRICAL_SURFACE ( 'NONE', #218, 4.500000000000000000 ) ;
#137 = DIRECTION ( 'NONE',  ( 1.000000000000000000, 0.000000000000000000, 0.000000000000000000 ) ) ;
#138 = UNCERTAINTY_MEASURE_WITH_UNIT (LENGTH_MEASURE( 1.000000000000000082E-05 ), #305, 'distance_accuracy_value', 'NONE');
#139 = CARTESIAN_POINT ( 'NONE',  ( -8.000000000000000000, 11.85640646055099978, -1.750000000000000000 ) ) ;
#140 = CIRCLE ( 'NONE', #303, 4.500000000000000000 ) ;
#141 = CARTESIAN_POINT ( 'NONE',  ( 0.000000000000000000, 0.000000000000000000, 3.750000000000000000 ) ) ;
#142 = DIRECTION ( 'NONE',  ( 0.000000000000000000, 0.000000000000000000, 1.000000000000000000 ) ) ;
#143 = VECTOR ( 'NONE', #280, 1000.000000000000000 ) ;
#144 = LINE ( 'NONE', #382, #90 ) ;
#145 = FACE_OUTER_BOUND ( 'NONE', #132, .T. ) ;
#146 = EDGE_LOOP ( 'NONE', ( #213, #297 ) ) ;
#147 = DIRECTION ( 'NONE',  ( 1.000000000000000000, 0.000000000000000000, 0.000000000000000000 ) ) ;
#148 = ORIENTED_EDGE ( 'NONE', *, *, #30, .T. ) ;
#149 = PRODUCT_DEFINITION ( 'UNKNOWN', '', #106, #165 ) ;
#150 = CC_DESIGN_APPROVAL ( #299, ( #34 ) ) ;
#151 = DIRECTION ( 'NONE',  ( 0.000000000000000000, 0.000000000000000000, 1.000000000000000000 ) ) ;
#152 = EDGE_LOOP ( 'NONE', ( #158, #3, #277, #370 ) ) ;
#153 = PRODUCT_RELATED_PRODUCT_CATEGORY ( 'detail', '', ( #210 ) ) ;
#154 = PERSON_AND_ORGANIZATION_ROLE ( 'creator' ) ;
#155 = PERSON ( 'UNSPECIFIED', 'UNSPECIFIED', 'UNSPECIFIED', ('UNSPECIFIED'), ('UNSPECIFIED'), ('UNSPECIFIED') ) ;
#156 = EDGE_LOOP ( 'NONE', ( #183, #128 ) ) ;
#157 = CC_DESIGN_PERSON_AND_ORGANIZATION_ASSIGNMENT ( #253, #103, ( #34 ) ) ;
#158 = ORIENTED_EDGE ( 'NONE', *, *, #245, .F. ) ;
#159 =( NAMED_UNIT ( * ) PLANE_ANGLE_UNIT ( ) SI_UNIT ( $, .RADIAN. ) );
#160 = CIRCLE ( 'NONE', #246, 16.00000000000000000 ) ;
#161 = ORIENTED_EDGE ( 'NONE', *, *, #220, .F. ) ;
#162 = DIRECTION ( 'NONE',  ( 0.000000000000000000, 0.000000000000000000, -1.000000000000000000 ) ) ;
#163 = CARTESIAN_POINT ( 'NONE',  ( -8.000000000000000000, 11.85640646055099978, 1.750000000000000000 ) ) ;
#164 = LINE ( 'NONE', #191, #193 ) ;
#165 = DESIGN_CONTEXT ( 'detailed design', #82, 'design' ) ;
#166 = DIRECTION ( 'NONE',  ( 0.000000000000000000, 0.000000000000000000, 1.000000000000000000 ) ) ;
#167 = CARTESIAN_POINT ( 'NONE',  ( -8.000000000000000000, -11.85640646055099978, -1.750000000000000000 ) ) ;
#168 = ADVANCED_FACE ( 'NONE', ( #194 ), #136, .T. ) ;
#169 = DIRECTION ( 'NONE',  ( 1.000000000000000000, 0.000000000000000000, 0.000000000000000000 ) ) ;
#170 = AXIS2_PLACEMENT_3D ( 'NONE', #279, #243, #371 ) ;
#171 = DIRECTION ( 'NONE',  ( 1.000000000000000000, 0.000000000000000000, 0.000000000000000000 ) ) ;
#172 = DIRECTION ( 'NONE',  ( 0.000000000000000000, 0.000000000000000000, -1.000000000000000000 ) ) ;
#173 = VECTOR ( 'NONE', #315, 1000.000000000000000 ) ;
#174 = ORIENTED_EDGE ( 'NONE', *, *, #271, .T. ) ;
#175 = CARTESIAN_POINT ( 'NONE',  ( 8.000000000000000000, 11.85640646055099978, 1.750000000000000000 ) ) ;
#176 = PLANE ( 'NONE',  #380 ) ;
#177 = FACE_OUTER_BOUND ( 'NONE', #294, .T. ) ;
#178 = EDGE_CURVE ( 'NONE', #254, #337, #329, .T. ) ;
#179 = ORIENTED_EDGE ( 'NONE', *, *, #347, .T. ) ;
#180 = APPROVAL_DATE_TIME ( #187, #10 ) ;
#181 = ORIENTED_EDGE ( 'NONE', *, *, #375, .T. ) ;
#182 = DIRECTION ( 'NONE',  ( 1.000000000000000000, 0.000000000000000000, 0.000000000000000000 ) ) ;
#183 = ORIENTED_EDGE ( 'NONE', *, *, #220, .T. ) ;
#184 = EDGE_CURVE ( 'NONE', #237, #217, #377, .T. ) ;
#185 = FACE_BOUND ( 'NONE', #58, .T. ) ;
#186 = ORIENTED_EDGE ( 'NONE', *, *, #271, .F. ) ;
#187 = DATE_AND_TIME ( #249, #269 ) ;
#188 = AXIS2_PLACEMENT_3D ( 'NONE', #91, #341, #311 ) ;
#189 = ORIENTED_EDGE ( 'NONE', *, *, #304, .F. ) ;
#190 = SHAPE_DEFINITION_REPRESENTATION ( #205, #327 ) ;
#191 = CARTESIAN_POINT ( 'NONE',  ( 8.000000000000000000, 11.85640646055099978, -1.750000000000000000 ) ) ;
#192 = CC_DESIGN_PERSON_AND_ORGANIZATION_ASSIGNMENT ( #240, #154, ( #149 ) ) ;
#193 = VECTOR ( 'NONE', #228, 1000.000000000000000 ) ;
#194 = FACE_OUTER_BOUND ( 'NONE', #92, .T. ) ;
#195 = CARTESIAN_POINT ( 'NONE',  ( 4.500000000000000000, 5.510910596163088569E-16, 1.750000000000000000 ) ) ;
#196 = DIRECTION ( 'NONE',  ( 0.000000000000000000, 0.000000000000000000, 1.000000000000000000 ) ) ;
#197 = AXIS2_PLACEMENT_3D ( 'NONE', #346, #15, #71 ) ;
#198 = LINE ( 'NONE', #45, #25 ) ;
#199 = DIRECTION ( 'NONE',  ( -0.000000000000000000, -0.000000000000000000, 1.000000000000000000 ) ) ;
#200 = APPROVAL_PERSON_ORGANIZATION ( #124, #286, #367 ) ;
#201 = CARTESIAN_POINT ( 'NONE',  ( 0.000000000000000000, 0.000000000000000000, 3.750000000000000000 ) ) ;
#202 = CC_DESIGN_PERSON_AND_ORGANIZATION_ASSIGNMENT ( #64, #393, ( #210 ) ) ;
#203 = CARTESIAN_POINT ( 'NONE',  ( 0.000000000000000000, 0.000000000000000000, 3.750000000000000000 ) ) ;
#204 = VERTEX_POINT ( 'NONE', #195 ) ;
#205 = PRODUCT_DEFINITION_SHAPE ( 'NONE', 'NONE',  #149 ) ;
#206 = FACE_BOUND ( 'NONE', #146, .T. ) ;
#207 = AXIS2_PLACEMENT_3D ( 'NONE', #276, #151, #56 ) ;
#208 = EDGE_CURVE ( 'NONE', #306, #113, #224, .T. ) ;
#209 = CARTESIAN_POINT ( 'NONE',  ( 8.000000000000000000, -11.85640646055101932, 1.750000000000000000 ) ) ;
#210 = PRODUCT ( '161123', '161123', '', ( #364 ) ) ;
#211 = COORDINATED_UNIVERSAL_TIME_OFFSET ( 5, 0, .BEHIND. ) ;
#212 = VERTEX_POINT ( 'NONE', #42 ) ;
#213 = ORIENTED_EDGE ( 'NONE', *, *, #386, .T. ) ;
#214 = AXIS2_PLACEMENT_3D ( 'NONE', #117, #199, #322 ) ;
#215 = ORIENTED_EDGE ( 'NONE', *, *, #108, .F. ) ;
#216 = PERSON_AND_ORGANIZATION ( #155, #134 ) ;
#217 = VERTEX_POINT ( 'NONE', #167 ) ;
#218 = AXIS2_PLACEMENT_3D ( 'NONE', #256, #284, #257 ) ;
#219 = VERTEX_POINT ( 'NONE', #74 ) ;
#220 = EDGE_CURVE ( 'NONE', #212, #362, #44, .T. ) ;
#221 = CYLINDRICAL_SURFACE ( 'NONE', #314, 16.00000000000000000 ) ;
#222 = APPROVAL_DATE_TIME ( #350, #299 ) ;
#223 = DIRECTION ( 'NONE',  ( 0.000000000000000000, 0.000000000000000000, -1.000000000000000000 ) ) ;
#224 = CIRCLE ( 'NONE', #378, 16.00000000000000000 ) ;
#225 = CALENDAR_DATE ( 2022, 27, 1 ) ;
#226 = DIRECTION ( 'NONE',  ( 0.000000000000000000, -1.000000000000000000, 0.000000000000000000 ) ) ;
#227 = CC_DESIGN_PERSON_AND_ORGANIZATION_ASSIGNMENT ( #216, #344, ( #106 ) ) ;
#228 = DIRECTION ( 'NONE',  ( 0.000000000000000000, 1.000000000000000000, 0.000000000000000000 ) ) ;
#229 = AXIS2_PLACEMENT_3D ( 'NONE', #47, #172, #293 ) ;
#230 = DIRECTION ( 'NONE',  ( 1.000000000000000000, 0.000000000000000000, 0.000000000000000000 ) ) ;
#231 = VECTOR ( 'NONE', #68, 1000.000000000000000 ) ;
#232 = DIRECTION ( 'NONE',  ( 0.000000000000000000, 0.000000000000000000, 1.000000000000000000 ) ) ;
#233 = CARTESIAN_POINT ( 'NONE',  ( 2.552699999999993530, 0.000000000000000000, 3.750000000000000000 ) ) ;
#234 = AXIS2_PLACEMENT_3D ( 'NONE', #201, #323, #171 ) ;
#235 = CYLINDRICAL_SURFACE ( 'NONE', #123, 4.500000000000000000 ) ;
#236 = CARTESIAN_POINT ( 'NONE',  ( 0.000000000000000000, -2.000000000000000000, -1.750000000000000000 ) ) ;
#237 = VERTEX_POINT ( 'NONE', #139 ) ;
#238 = EDGE_CURVE ( 'NONE', #217, #274, #273, .T. ) ;
#239 = CARTESIAN_POINT ( 'NONE',  ( 0.000000000000000000, 2.000000000000000000, 1.750000000000000000 ) ) ;
#240 = PERSON_AND_ORGANIZATION ( #155, #134 ) ;
#241 = CIRCLE ( 'NONE', #389, 2.552699999999999303 ) ;
#242 = ORIENTED_EDGE ( 'NONE', *, *, #347, .F. ) ;
#243 = DIRECTION ( 'NONE',  ( -0.000000000000000000, -0.000000000000000000, 1.000000000000000000 ) ) ;
#244 = EDGE_LOOP ( 'NONE', ( #248, #179, #94, #89 ) ) ;
#245 = EDGE_CURVE ( 'NONE', #362, #212, #37, .T. ) ;
#246 = AXIS2_PLACEMENT_3D ( 'NONE', #239, #142, #17 ) ;
#247 = PLANE ( 'NONE',  #188 ) ;
#248 = ORIENTED_EDGE ( 'NONE', *, *, #208, .T. ) ;
#249 = CALENDAR_DATE ( 2022, 27, 1 ) ;
#250 = ORIENTED_EDGE ( 'NONE', *, *, #184, .T. ) ;
#251 = AXIS2_PLACEMENT_3D ( 'NONE', #259, #11, #107 ) ;
#252 = ADVANCED_FACE ( 'NONE', ( #99 ), #221, .T. ) ;
#253 = PERSON_AND_ORGANIZATION ( #155, #134 ) ;
#254 = VERTEX_POINT ( 'NONE', #263 ) ;
#255 = CARTESIAN_POINT ( 'NONE',  ( -4.500000000000000000, 0.000000000000000000, 3.750000000000000000 ) ) ;
#256 = CARTESIAN_POINT ( 'NONE',  ( 0.000000000000000000, 0.000000000000000000, 3.750000000000000000 ) ) ;
#257 = DIRECTION ( 'NONE',  ( -1.000000000000000000, 0.000000000000000000, 0.000000000000000000 ) ) ;
#258 = ADVANCED_FACE ( 'NONE', ( #292 ), #235, .T. ) ;
#259 = CARTESIAN_POINT ( 'NONE',  ( 0.000000000000000000, 0.000000000000000000, 3.750000000000001332 ) ) ;
#260 = FACE_OUTER_BOUND ( 'NONE', #7, .T. ) ;
#261 = AXIS2_PLACEMENT_3D ( 'NONE', #141, #354, #169 ) ;
#262 = EDGE_CURVE ( 'NONE', #122, #254, #295, .T. ) ;
#263 = CARTESIAN_POINT ( 'NONE',  ( 2.552699999999987757, 0.000000000000000000, 3.750000000000001332 ) ) ;
#264 = CARTESIAN_POINT ( 'NONE',  ( 8.000000000000000000, -11.85640646055101932, -1.750000000000000000 ) ) ;
#265 = VERTEX_POINT ( 'NONE', #209 ) ;
#266 = FACE_BOUND ( 'NONE', #55, .T. ) ;
#267 = DIRECTION ( 'NONE',  ( 0.000000000000000000, 0.000000000000000000, -1.000000000000000000 ) ) ;
#268 = EDGE_LOOP ( 'NONE', ( #372, #28, #81, #302 ) ) ;
#269 = LOCAL_TIME ( 10, 38, 55.00000000000000000, #129 ) ;
#270 = ORIENTED_EDGE ( 'NONE', *, *, #24, .F. ) ;
#271 = EDGE_CURVE ( 'NONE', #306, #219, #144, .T. ) ;
#272 = PERSON_AND_ORGANIZATION ( #155, #134 ) ;
#273 = CIRCLE ( 'NONE', #383, 16.00000000000000000 ) ;
#274 = VERTEX_POINT ( 'NONE', #264 ) ;
#275 = MANIFOLD_SOLID_BREP ( '1/4-20 Tapped Hole1', #300 ) ;
#276 = CARTESIAN_POINT ( 'NONE',  ( 0.000000000000000000, 0.000000000000000000, 0.000000000000000000 ) ) ;
#277 = ORIENTED_EDGE ( 'NONE', *, *, #291, .T. ) ;
#278 = CIRCLE ( 'NONE', #57, 4.500000000000000000 ) ;
#279 = CARTESIAN_POINT ( 'NONE',  ( 0.000000000000000000, 0.000000000000000000, -1.749999999999999778 ) ) ;
#280 = DIRECTION ( 'NONE',  ( -0.000000000000000000, -0.000000000000000000, 1.000000000000000000 ) ) ;
#281 = EDGE_CURVE ( 'NONE', #219, #237, #6, .T. ) ;
#282 = ORIENTED_EDGE ( 'NONE', *, *, #14, .F. ) ;
#283 = VECTOR ( 'NONE', #105, 1000.000000000000000 ) ;
#284 = DIRECTION ( 'NONE',  ( 0.000000000000000000, 0.000000000000000000, -1.000000000000000000 ) ) ;
#285 = CARTESIAN_POINT ( 'NONE',  ( -2.552699999999999303, 3.126155884183447267E-16, -1.749999999999999778 ) ) ;
#286 = APPROVAL ( #2, 'UNSPECIFIED' ) ;
#287 = CARTESIAN_POINT ( 'NONE',  ( 0.000000000000000000, 0.000000000000000000, 3.750000000000000000 ) ) ;
#288 = CARTESIAN_POINT ( 'NONE',  ( 0.000000000000000000, 2.000000000000000000, -1.750000000000000000 ) ) ;
#289 = CARTESIAN_POINT ( 'NONE',  ( 0.000000000000000000, -2.000000000000000000, 1.750000000000000000 ) ) ;
#290 = AXIS2_PLACEMENT_3D ( 'NONE', #19, #385, #26 ) ;
#291 = EDGE_CURVE ( 'NONE', #204, #4, #140, .T. ) ;
#292 = FACE_OUTER_BOUND ( 'NONE', #152, .T. ) ;
#293 = DIRECTION ( 'NONE',  ( -1.000000000000000000, 0.000000000000000000, 0.000000000000000000 ) ) ;
#294 = EDGE_LOOP ( 'NONE', ( #98, #115, #340, #366 ) ) ;
#295 = LINE ( 'NONE', #233, #1 ) ;
#296 = AXIS2_PLACEMENT_3D ( 'NONE', #175, #84, #21 ) ;
#297 = ORIENTED_EDGE ( 'NONE', *, *, #78, .T. ) ;
#298 = CARTESIAN_POINT ( 'NONE',  ( 0.000000000000000000, -2.000000000000000000, -1.750000000000000000 ) ) ;
#299 = APPROVAL ( #41, 'UNSPECIFIED' ) ;
#300 = CLOSED_SHELL ( 'NONE', ( #338, #258, #359, #392, #353, #252, #73, #332, #309, #168, #363 ) ) ;
#301 = DIRECTION ( 'NONE',  ( -1.000000000000000000, 0.000000000000000000, 0.000000000000000000 ) ) ;
#302 = ORIENTED_EDGE ( 'NONE', *, *, #262, .F. ) ;
#303 = AXIS2_PLACEMENT_3D ( 'NONE', #328, #232, #357 ) ;
#304 = EDGE_CURVE ( 'NONE', #61, #265, #160, .T. ) ;
#305 =( LENGTH_UNIT ( ) NAMED_UNIT ( * ) SI_UNIT ( .MILLI., .METRE. ) );
#306 = VERTEX_POINT ( 'NONE', #79 ) ;
#307 = ORIENTED_EDGE ( 'NONE', *, *, #375, .F. ) ;
#308 =( NAMED_UNIT ( * ) SI_UNIT ( $, .STERADIAN. ) SOLID_ANGLE_UNIT ( ) );
#309 = ADVANCED_FACE ( 'NONE', ( #266, #384 ), #51, .T. ) ;
#310 = CARTESIAN_POINT ( 'NONE',  ( -4.500000000000000000, 0.000000000000000000, 1.750000000000000000 ) ) ;
#311 = DIRECTION ( 'NONE',  ( 1.000000000000000000, 0.000000000000000000, 0.000000000000000000 ) ) ;
#312 = CARTESIAN_POINT ( 'NONE',  ( -8.000000000000000000, 11.85640646055099978, 1.750000000000000000 ) ) ;
#313 = CARTESIAN_POINT ( 'NONE',  ( -8.000000000000000000, 11.85640646055099978, 1.750000000000000000 ) ) ;
#314 = AXIS2_PLACEMENT_3D ( 'NONE', #345, #110, #301 ) ;
#315 = DIRECTION ( 'NONE',  ( 0.000000000000000000, 0.000000000000000000, -1.000000000000000000 ) ) ;
#316 = CC_DESIGN_SECURITY_CLASSIFICATION ( #34, ( #106 ) ) ;
#317 = DATE_AND_TIME ( #225, #72 ) ;
#318 = CARTESIAN_POINT ( 'NONE',  ( 2.552699999999999303, 0.000000000000000000, -1.749999999999999778 ) ) ;
#319 = DIRECTION ( 'NONE',  ( 1.000000000000000000, 0.000000000000000000, 0.000000000000000000 ) ) ;
#320 = AXIS2_PLACEMENT_3D ( 'NONE', #287, #196, #319 ) ;
#321 = DIRECTION ( 'NONE',  ( 0.000000000000000000, 0.000000000000000000, -1.000000000000000000 ) ) ;
#322 = DIRECTION ( 'NONE',  ( 1.000000000000000000, 0.000000000000000000, 0.000000000000000000 ) ) ;
#323 = DIRECTION ( 'NONE',  ( 0.000000000000000000, 0.000000000000000000, 1.000000000000000000 ) ) ;
#324 = ORIENTED_EDGE ( 'NONE', *, *, #281, .T. ) ;
#325 = FACE_OUTER_BOUND ( 'NONE', #268, .T. ) ;
#326 = FACE_OUTER_BOUND ( 'NONE', #32, .T. ) ;
#327 = ADVANCED_BREP_SHAPE_REPRESENTATION ( '161123', ( #275, #207 ), #127 ) ;
#328 = CARTESIAN_POINT ( 'NONE',  ( 0.000000000000000000, 0.000000000000000000, 1.750000000000000000 ) ) ;
#329 = CIRCLE ( 'NONE', #251, 2.552699999999987757 ) ;
#330 = CALENDAR_DATE ( 2022, 27, 1 ) ;
#331 = ORIENTED_EDGE ( 'NONE', *, *, #65, .F. ) ;
#332 = ADVANCED_FACE ( 'NONE', ( #145 ), #388, .T. ) ;
#333 = DIRECTION ( 'NONE',  ( 0.000000000000000000, 0.000000000000000000, 1.000000000000000000 ) ) ;
#334 = ORIENTED_EDGE ( 'NONE', *, *, #291, .F. ) ;
#335 = LOCAL_TIME ( 10, 38, 55.00000000000000000, #121 ) ;
#336 = APPROVAL_STATUS ( 'not_yet_approved' ) ;
#337 = VERTEX_POINT ( 'NONE', #114 ) ;
#338 = ADVANCED_FACE ( 'NONE', ( #325 ), #355, .F. ) ;
#339 = PERSON_AND_ORGANIZATION_ROLE ( 'creator' ) ;
#340 = ORIENTED_EDGE ( 'NONE', *, *, #262, .T. ) ;
#341 = DIRECTION ( 'NONE',  ( 0.000000000000000000, 0.000000000000000000, 1.000000000000000000 ) ) ;
#342 = ORIENTED_EDGE ( 'NONE', *, *, #178, .F. ) ;
#343 = VECTOR ( 'NONE', #48, 1000.000000000000000 ) ;
#344 = PERSON_AND_ORGANIZATION_ROLE ( 'design_supplier' ) ;
#345 = CARTESIAN_POINT ( 'NONE',  ( 0.000000000000000000, 2.000000000000000000, 1.750000000000000000 ) ) ;
#346 = CARTESIAN_POINT ( 'NONE',  ( 0.000000000000000000, 0.000000000000000000, 3.750000000000001332 ) ) ;
#347 = EDGE_CURVE ( 'NONE', #113, #61, #80, .T. ) ;
#348 = DIRECTION ( 'NONE',  ( 1.000000000000000000, 0.000000000000000000, 0.000000000000000000 ) ) ;
#349 = AXIS2_PLACEMENT_3D ( 'NONE', #236, #86, #112 ) ;
#350 = DATE_AND_TIME ( #131, #100 ) ;
#351 = DIRECTION ( 'NONE',  ( -0.000000000000000000, -0.000000000000000000, 1.000000000000000000 ) ) ;
#352 = COORDINATED_UNIVERSAL_TIME_OFFSET ( 5, 0, .BEHIND. ) ;
#353 = ADVANCED_FACE ( 'NONE', ( #260 ), #77, .F. ) ;
#354 = DIRECTION ( 'NONE',  ( 0.000000000000000000, 0.000000000000000000, 1.000000000000000000 ) ) ;
#355 = CYLINDRICAL_SURFACE ( 'NONE', #290, 2.552699999999993530 ) ;
#356 = LOCAL_TIME ( 10, 38, 55.00000000000000000, #211 ) ;
#357 = DIRECTION ( 'NONE',  ( 1.000000000000000000, 0.000000000000000000, 0.000000000000000000 ) ) ;
#358 = DIRECTION ( 'NONE',  ( -0.000000000000000000, -0.000000000000000000, 1.000000000000000000 ) ) ;
#359 = ADVANCED_FACE ( 'NONE', ( #206, #326 ), #176, .F. ) ;
#360 = DIRECTION ( 'NONE',  ( -1.000000000000000000, 0.000000000000000000, 0.000000000000000000 ) ) ;
#361 = DIRECTION ( 'NONE',  ( 0.000000000000000000, 0.000000000000000000, -1.000000000000000000 ) ) ;
#362 = VERTEX_POINT ( 'NONE', #390 ) ;
#363 = ADVANCED_FACE ( 'NONE', ( #177 ), #109, .F. ) ;
#364 = MECHANICAL_CONTEXT ( 'NONE', #20, 'mechanical' ) ;
#365 = VECTOR ( 'NONE', #162, 1000.000000000000000 ) ;
#366 = ORIENTED_EDGE ( 'NONE', *, *, #178, .T. ) ;
#367 = APPROVAL_ROLE ( '' ) ;
#368 = ORIENTED_EDGE ( 'NONE', *, *, #208, .F. ) ;
#369 = DATE_AND_TIME ( #88, #335 ) ;
#370 = ORIENTED_EDGE ( 'NONE', *, *, #30, .F. ) ;
#371 = DIRECTION ( 'NONE',  ( 1.000000000000000000, 0.000000000000000000, 0.000000000000000000 ) ) ;
#372 = ORIENTED_EDGE ( 'NONE', *, *, #78, .F. ) ;
#373 = DIRECTION ( 'NONE',  ( 1.000000000000000000, 0.000000000000000000, 0.000000000000000000 ) ) ;
#374 = CIRCLE ( 'NONE', #170, 2.552699999999999303 ) ;
#375 = EDGE_CURVE ( 'NONE', #4, #204, #278, .T. ) ;
#376 = LINE ( 'NONE', #102, #231 ) ;
#377 = LINE ( 'NONE', #104, #76 ) ;
#378 = AXIS2_PLACEMENT_3D ( 'NONE', #289, #166, #373 ) ;
#379 = CARTESIAN_POINT ( 'NONE',  ( -8.000000000000000000, -11.85640646055099978, 1.750000000000000000 ) ) ;
#380 = AXIS2_PLACEMENT_3D ( 'NONE', #298, #23, #147 ) ;
#381 = DIRECTION ( 'NONE',  ( 0.000000000000000000, 0.000000000000000000, 1.000000000000000000 ) ) ;
#382 = CARTESIAN_POINT ( 'NONE',  ( 8.000000000000000000, 11.85640646055099978, 1.750000000000000000 ) ) ;
#383 = AXIS2_PLACEMENT_3D ( 'NONE', #288, #381, #230 ) ;
#384 = FACE_OUTER_BOUND ( 'NONE', #156, .T. ) ;
#385 = DIRECTION ( 'NONE',  ( -0.000000000000000000, -0.000000000000000000, 1.000000000000000000 ) ) ;
#386 = EDGE_CURVE ( 'NONE', #122, #119, #374, .T. ) ;
#387 = ORIENTED_EDGE ( 'NONE', *, *, #238, .T. ) ;
#388 = CYLINDRICAL_SURFACE ( 'NONE', #229, 16.00000000000000000 ) ;
#389 = AXIS2_PLACEMENT_3D ( 'NONE', #13, #351, #348 ) ;
#390 = CARTESIAN_POINT ( 'NONE',  ( 4.500000000000000000, 5.510910596163088569E-16, 3.750000000000000000 ) ) ;
#391 = ORIENTED_EDGE ( 'NONE', *, *, #59, .T. ) ;
#392 = ADVANCED_FACE ( 'NONE', ( #185, #62 ), #247, .T. ) ;
#393 = PERSON_AND_ORGANIZATION_ROLE ( 'design_owner' ) ;
#394 = APPLICATION_PROTOCOL_DEFINITION ( 'international standard', 'config_control_design', 1994, #82 ) ;
#395 = ORIENTED_EDGE ( 'NONE', *, *, #50, .F. ) ;
ENDSEC;
END-ISO-10303-21;
